Song name
# A B C D E F G H I J K L M N O P Q R S T U V W X Y Z

Ben Howard - Everything tab

-------------------------------------------------------------------------
                         BEN HOWARD – EVERYTHING                       
-------------------------------------------------------------------------

Tuning: CGCGGC
Capo 3 (covering all strings except the lowest C)
Notes not relative to capo.

/  = slide up
\  = slide down
h  = hammer-on
p  = pull-off
+  = harmonic

-------------------------------------------------------------------------

INTRO:

C|----------------------------------3----------|
G|-------------3-------------------------------|
G|--------3------------3-------3------------3--|
C|-----12-----------12------12-----------12----|
G|--13------13---13------13------13---13-------|
C|---------------------------------------------|

C|----------------------------|-----10+-----10--10--7p3--|
G|----------------------------|-----10+-----10--10--3----|
G|----------------------------|--------------------------|
C|----3h7p3-5p3----3h7p3-5p3--|--------------------------|
G|--5------------5------------|--8-------7---------------|
C|----------------------------|--------------------------|


C|-------------3---------------------3----3---|
G|----------------------------------------3---|
G|--------3------------3-------3-------3--3---|
C|-----12-----------12------12------------12--|
G|--13------13---13------13------13-------13--|
C|--------------------------------------------|

C|----------------------------|-----10+-----10-------10--|
G|----------------------------|-----10+-----10-------10--|
G|----------------------------|--------------------------|
C|----3h7p3-5p3----3h7p3-5p3--|--------------------------|
G|--5------------5------------|--8-------7------7-7------|
C|----------------------------|--------------------------|


VERSE 1:

C|-------------3--------------------3----3---|
G|---------------------------------------3---|
G|--------3------------3-------3------3--3---|
C|-----12-----------12------12-----------12--|
G|--13------13---13------13------13------13--|
C|-------------------------------------------|
    And the birds still...
    
C|----------------------------|-----10+-----10--10--7p3--|
G|----------------------------|-----10+-----10--10--3----|
G|----------------------------|--------------------------|
C|----3h7p3-5p3----3h7p3-5p3--|--------------------------|
G|--5------------5------------|--8-------7---------------|
C|----------------------------|--------------------------|


C|-------------3--------------------3----3---|
G|---------------------------------------3---|
G|--------3------------3-------3------3--3---|
C|-----12-----------12------12-----------12--|
G|--13------13---13------13------13------13--|
C|-------------------------------------------|
    Like nothing ever...
    
C|----------------------------|-----10+-----10--10--7p3--|
G|----------------------------|-----10+-----10--10--3----|
G|----------------------------|--------------------------|
C|----3h7p3-5p3----3h7p3-5p3--|--------------------------|
G|--5------------5------------|--8-------7---------------|
C|----------------------------|--------------------------|


C|-------------3--------------------3----3---|
G|---------------------------------------3---|
G|--------3------------3-------3------3--3---|
C|-----12-----------12------12-----------12--|
G|--13------13---13------13------13------13--|
C|-------------------------------------------|
    And the church spire...
    
C|----------------------------|-----10+-----10--10--7p3--|
G|----------------------------|-----10+-----10--10--3----|
G|----------------------------|--------------------------|
C|----3h7p3-5p3----3h7p3-5p3--|--------------------------|
G|--5------------5------------|--8-------7---------------|
C|----------------------------|--------------------------|


C|-------------3--------------------3----3---|
G|---------------------------------------3---|
G|--------3------------3-------3------3--3---|
C|-----12-----------12------12-----------12--|
G|--13------13---13------13------13------13--|
C|-------------------------------------------|
    But you don’t care about...
    
C|----------------------------|-----10+-----10-------10--|
G|----------------------------|-----10+-----10-------10--|
G|----------------------------|--------------------------|
C|----3h7p3-5p3----3h7p3-5p3--|--------------------------|
G|--5------------5------------|--8-------7------7-7------|
C|----------------------------|--------------------------|


 
PRE-CHORUS:

C|----------10-----------------10---------|
G|-----------------10-----------------10--|
G|------3------------------3--------------|
C|----3----------3-------3----------3-----|
G|--8-----8----8-------7-----7----7-------|
C|----------------------------------------|
    Seems everything...

C|----------10-----------------10---------|
G|-----------------10-----------------10--|
G|------3------------------3--------------|
C|----3----------3-------3----------3-----|
G|----------------------------------------|
C|--8-----8----8-------8-----8----8-------|

C|----------10-----------------10---------|
G|-----------------10-----------------10--|
G|------3------------------3--------------|
C|----3----------3-------3----------3-----|
G|--8-----8----8-------7-----7----7-------|
C|----------------------------------------|

C|----------10-----------------10---------|
G|-----------------10-----------------10--|
G|------3------------------3--------------|
C|----3----------3-------3----------3-----|
G|----------------------------------------|
C|--8-----8----8-------8-----8----8-------|

C|----------10-----------------10----3--|
G|-----------------10----------------3--|
G|------3------------------3------3--3--|
C|----3----------3-------3-----------3--|
G|-----------------------------------3--|
C|--8-----8----8-------8-----8----------|


CHORUS 1:

C|---------------------5h7p5p3--3--|--------------------------3--|
G|-----15+--10+--8+-------------3--|--------------------------3--|
G|-----15+--10+--8+-------------3--|----3----3------3------3--3--|
C|------------------------------3--|----3----3----7------5----3--|
G|------------------------------3--|--------------------------3--|
C|--0----------------0-------------|--3----3----3------3---------|
    Cause everything...


C|---------------------5h7p5p3--3--|-----------------------------3--|
G|-----15+--10+--8+-------------3--|-----------------------------3--|
G|-----15+--10+--8+-------------3--|----3----3-------------------3--|
C|------------------------------3--|----3----3----5/7p3h5----p3--3--|
G|------------------------------3--|-----------------------------3--|
C|--0----------------0-------------|--3----3----3----------3--------|
    Cause everything...


C|---------------------5h7p5p3--3--|--------------------------3--|
G|-----15+--10+--8+-------------3--|--------------------------3--|
G|-----15+--10+--8+-------------3--|----3----3------3------3--3--|
C|------------------------------3--|----3----3----7------5----3--|
G|------------------------------3--|--------------------------3--|
C|--0----------------0-------------|--3----3----3------3---------|
    And every king...


C|---------------------5h7p3--|-----------------------------3--|
G|-----15+--10+--8+--------3--|-----------------------------3--|
G|-----15+--10+--8+--------3--|----3----3-------------------3--|
C|-------------------------3--|----3----3----5/7p3h5----p3--3--|
G|-------------------------3--|-----------------------------3--|
C|--0----------------0--------|--3----3----3----------3--------|
    That every kingdom...


C|-------------------------|-------------------------|
G|-------------------------|-------------------------|
G|-----8--5—3h5-----3h5p3--|-----8--5—3h5-----3h5p3--|
C|-----7--5-3h5-----3h5p3--|-----7--5-3h5-----3h5p3--|
G|-------------------------|-------------------------|
C|--0------------0---------|--0------------0---------|
    E-e-end...

C|-------------------------|-----------------------|
G|-------------------------|-----------------------|
G|-------------------------|-----------------------|
C|-----7--5-3h5-----3h5p3--|-----7--5-3h5-----3h5--|
G|-------------------------|-----------------------|
C|--3------------3---------|--3------------3-------|
    E-e-end...


C|-----------------------|------------------7-p3--|
G|-----------------------|------------------3--3--|
G|-----7--5—3h5-----3h5--|-----7--5—3h5--------3--|
C|-----8--5-3h5-----3h5--|-----8--5-3h5--------3--|
G|-----------------------|---------------------3--|
C|--0------------0-------|--0------------0-----3--|

C|-------------------------|-------------------------|
G|-------------------------|-------------------------|
G|-------------------------|-------------------------|
C|-----7--5-3h5-----3h5p3--|-----7--5-3h5-----3h5p3--|
G|-------------------------|-------------------------|
C|--3------------3---------|--3------------3---------|


C|--------------------------------3--|
G|--------------------------------3--|
G|------3-----3----------3-----3--3--|
C|----5-----5-----5----5-----5----3--|
G|--------------------------------3--|
C|--2-----2-----2----2-----2---------|


 
VERSE 2:

C|--------------------------------3--|----------------------------|
G|----------8----------------8----3--|----------------------------|
G|------3---------3------3-----3--3--|----------------------------|
C|----8---------8------8----------3--|----3h7p3-5p3----3h7p3-5p3--|
G|--------------------------------3--|--5------------5------------|
C|--8-----8---8------8-----8---------|----------------------------|
    And the sun...

C|----------3----------------3--------|
G|------------------------------------|
G|------3---------3------3---------3--|
C|----3---------3------3---------3----|
G|------------------------------------|
C|--3-----3---3------3-----3---3------|
    Lost to these memories...

C|----------------------3----------3--|
G|----------------------3----------3--|
G|-----3-----3-----3----3-----3----3--|
C|-----5-----5-----3h5--5-----5p3--3--|
G|----------------------3----------3--|
C|--2-----2-----2----------2----------|


C|--------------------------------3--|----------------------------|
G|----------8----------------8----3--|----------------------------|
G|------3---------3------3-----3--3--|----------------------------|
C|----8---------8------8----------3--|----3h7p3-5p3----3h7p3-5p3--|
G|--------------------------------3--|--5------------5------------|
C|--8-----8---8------8-----8---------|----------------------------|
    But she’ll be here...

C|----------3----------------3--------|
G|------------------------------------|
G|------3---------3------3---------3--|
C|----3---------3------3---------3----|
G|------------------------------------|
C|--3-----3---3------3-----3---3------|
    When our bodies...

C|----------------------3----------3--|
G|----------------------3----------3--|
G|-----3-----3-----3----3-----3----3--|
C|-----5-----5-----3h5--5-----5p3--3--|
G|----------------------3----------3--|
C|--2-----2-----2----------2----------|


 
C|--------------------------------3--|
G|----------8----------------8----3--|
G|------3---------3------3-----3--3--|
C|----8---------8------8----------3--|
G|--------------------------------3--|
C|--8-----8---8------8-----8---------|
    Seems everything...

C|----------3----------------3--------|
G|------------------------------------|
G|------3---------3------3---------3--|
C|----3---------3------3---------3----|
G|------------------------------------|
C|--3-----3---3------3-----3---3------|

C|----------------------3----------3--|
G|----------------------3----------3--|
G|-----3-----3-----3----3-----3----3--|
C|-----5-----5-----3h5--5-----5p3--3--|
G|----------------------3----------3--|
C|--2-----2-----2----------2----------|


C|--------------------------------3--|
G|----------8----------------8----3--|
G|------3---------3------3-----3--3--|
C|----8---------8------8----------3--|
G|--------------------------------3--|
C|--8-----8---8------8-----8---------|

C|----------3--------------------------|
G|-------------------------------------|
G|------3---------3------3-----3-------|
C|----3---------3------5-----5------3--|
G|-------------------------------------|
C|--3-----3---3------2-----2------0----|


C|--------------------------------------|
G|----------8-----------------8---------|
G|------3----------3------3----------3--|
C|----8----------8------8----------8----|
G|--------------------------------------|
C|--8-----8----8------8-----8----8------|

C|--------------------------------3--|
G|----------8----------------8----3--|
G|------3---------3------3-----3--3--|
C|----8---------8------8----------3--|
G|--------------------------------3--|
C|--8-----8---8------8-----8---------|


CHORUS 2/OUTRO:

C|---------------------5h7p5p3--3--|--------------------------------|
G|-----15+--10+--8+-------------3--|--------------------------------|
G|-----15+--10+--8+-------------3--|----3----3----------------------|
C|------------------------------3--|----3----3----7\5p3h5----3h5p3--|
G|------------------------------3--|--------------------------------|
C|--0----------------0-------------|--3----3----3----------3--------|
    Everything...


C|---------------------5h7p5p3--3--|-----------------------------3--|
G|-----15+--10+--8+-------------3--|-----------------------------3--|
G|-----15+--10+--8+-------------3--|----3----3-------------------3--|
C|------------------------------3--|----3----3----5/7p3h5----p3--3--|
G|------------------------------3--|-----------------------------3--|
C|--0----------------0-------------|--3----3----3----------3--------|
    Cause everything...


C|---------------------5h7p5p3--3--|-----------------------------3--|
G|-----15+--10+--8+-------------3--|-----------------------------3--|
G|-----15+--10+--8+-------------3--|----3----3-------------------3--|
C|------------------------------3--|----3----3----5/7p3h5----p3--3--|
G|------------------------------3--|-----------------------------3--|
C|--0----------------0-------------|--3----3----3----------3--------|
    And every king...


C|---------------------5h7p5p3--3--|-----------------------------3--|
G|-----15+--10+--8+-------------3--|-----------------------------3--|
G|-----15+--10+--8+-------------3--|----3----3-------------------3--|
C|------------------------------3--|----3----3----5/7p3h5----p3--3--|
G|------------------------------3--|-----------------------------3--|
C|--0----------------0-------------|--3----3----3----------3--------|
    That every kingdom...


C|-------------------------|-------------------------|
G|-------------------------|-------------------------|
G|-----8--5—3h5-----3h5p3--|-----8--5—3h5-----3h5p3--|
C|-----7--5-3h5-----3h5p3--|-----7--5-3h5-----3h5p3--|
G|-------------------------|-------------------------|
C|--0------------0---------|--0------------0---------|

C|-------------------------|-----------------------|
G|-------------------------|-----------------------|
G|-------------------------|-----------------------|
C|-----7--5-3h5-----3h5p3--|-----7--5-3h5-----3h5--|
G|-------------------------|-----------------------|
C|--3------------3---------|--3------------3-------|


C|-----------------------|------------------7-p3--|
G|-----------------------|------------------3--3--|
G|-----8--5—3h5-----3h5--|-----8--5—3h5--------3--|
C|-----7--5-3h5-----3h5--|-----7--5-3h5--------3--|
G|-----------------------|---------------------3--|
C|--0------------0-------|--0------------0-----3--|

 
C|-------------------------|-------------------------|
G|-------------------------|-------------------------|
G|-------------------------|-------------------------|
C|-----7--5-3h5-----3h5p3--|-----7--5-3h5-----3h5p3--|
G|-------------------------|-------------------------|
C|--3------------3---------|--3------------3---------|


C|-------------------------|-------------------------|
G|-------------------------|-------------------------|
G|-----8--5—3h5-----10/12--|-----8--5—3h5-----8\5p3--|
C|-----7--5-3h5-----10/12--|-----7--5-3h5-----7\5p3--|
G|-------------------------|-------------------------|
C|--0------------0---------|--0------------0---------|

C|-------------------------|-------------------------|
G|-------------------------|-------------------------|
G|-------------------------|-------------------------|
C|-----7--5-3h5-----3h5p3--|-----7--5-3h5-----3h5p3--|
G|-------------------------|-------------------------|
C|--3------------3---------|--3------------3---------|


C|-------------------------|---------------------------|
G|-------------------------|---------------------------|
G|-----8--5—3h5-----10/12--|-----8--5—3h5-----12\10p3--|
C|-----7--5-3h5-----10/12--|-----7--5-3h5-----12\10p3--|
G|-------------------------|---------------------------|
C|--0------------0---------|--0------------0-----------|

C|-------------------------|-----------------------------------|
G|-------------------------|-----------------------------------|
G|-------------------------|--------------------------------3--|
C|-----7--5-3h5-----3h5p3--|-----7--5-3h5-----3h5p3------5-----|
G|-------------------------|-----------------------------------|
C|--3------------3---------|--3------------3----------2--------|
Tap to rate this tab
# A B C D E F G H I J K L M N O P Q R S T U V W X Y Z