Song name
# A B C D E F G H I J K L M N O P Q R S T U V W X Y Z

Berurier Noir - Salut A Toi tab

Bérurier noir - Salut à toi:
****************************

Titre culte et très simple (jouer tout en aller-retour)

e)-------------------------------------------------------------------|
B)-------------------------------------------------------------------|
G)-------------------------------------------------------------------|
D)---9-X-X-9-X-999---5-X-X-5-X-555---9-X-X-9-X-999---5-X-X-5-X-555---|
A)---9-X-X-9-X-999---5-X-X-5-X-555---9-X-X-9-X-999---5-X-X-5-X-555---|
E)---7-X-X-7-X-777---3-X-X-3-X-333---7-X-X-7-X-777---3-X-X-3-X-333---|

e)-------------------------------------------------------------------|
B)-------------------------------------------------------------------|
G)-------------------------------------------------------------------|
D)---7-X-X-7-X-777---3-X-X-3-X-333---7-X-X-7-X-777---3-X-X-3-X-333---|
A)---7-X-X-7-X-777---3-X-X-3-X-333---7-X-X-7-X-777---3-X-X-3-X-333---|
E)---5-X-X-5-X-555---1-X-X-1-X-111---5-X-X-5-X-555---1-X-X-1-X-111---|

riff à répéter à l'infini
Tap to rate this tab
# A B C D E F G H I J K L M N O P Q R S T U V W X Y Z