Song name
# A B C D E F G H I J K L M N O P Q R S T U V W X Y Z

Biffy Clyro - Black Chandelier tab

Drop Db
     Ab
     Db
     Gb
     Bb
     eb

Intro x2

|-----------------------------------------------------|
|-----------------------------------------------------|
|-----9------9------9------9------9-------------------|
|-----10-----10-----10-----10-----10------------------|
|-8-8-8--8-8-8--8-8-8--8-8-8--8-8-8-------------------|
|-----------------------------------------------------|

Verse (listen the song for a correct strumming)

|-----------------------------------------------------|
|-----------------------------------------------------|
|-9--9--9--9--9--9--9--9--9--9--9--9--9---------------|
|-10-10-10-10-10-10-10-10-10-10-10-10-10--------------|
|-7--7--7--0--0--0--x--x--x--x--x--x--8---------------|
|----------7--7--7--9--9--9--10-10-10-----------------|

|-----------------------------------------------------|
|-----------------------------------------------------|
|-9--9--9--9--9--9--9--9--9--9--9--9--10--------------|
|-10-10-10-10-10-10-10-10-10-10-10-10-10--------------|
|-7--7--7--0--0--0--x--x--x--x--x--x--8---------------|
|----------7--7--7--9--9--9--10-10-10-----------------|

|-----------------------------------------------------|
|-----------------------------------------------------|
|-12-12-12-9--9--9--9--9--9--9--9--9--10--------------|
|-10-10-10-10-10-10-10-10-10-10-10-10-10--------------|
|-7--7--7--0--0--0--x--x--x--x--x--x--8---------------|
|----------7--7--7--9--9--9--10-10-10-----------------|

|-----------------------------------------------------|
|-----------------------------------------------------|
|-9--9--9--9--9--9--9--9--9--9--9--9--10--------------|
|-10-10-10-10-10-10-10-10-10-10-10-10-10--------------|
|-7--7--7--0--0--0--x--x--x--x--x--x--8---------------|
|----------7--7--7--9--9--9--10-10-10-----------------|

Pre-chorus

|-----------------------------------------------------|
|-----------------------------------------------------|
|-9-----9-----9-----9-----9-----12--------------------|
|-10-x7-10-x8-10-x7-10-x8-10-x7-10-x7-----------------|
|-12----11----10----9-----8-----8---------------------|
|-----------------------------------------------------|

Chorus

|----------------------------------------------------------------------------|
|----------------------------------------------------------------------------|
|-9--9--9---------9--9--9--9------9--9--9--10-----9--9--9--9------9--9--9----|
|-10-10-10-10-----10-10-10-10-----10-10-10-10-x14-10-10-10-10-x14-10-10-10---|
|-7--7--7--10-x14-7--7--7--0--x14-7--7--7--8------7--7--7--0------7--7--7----|
|----------10-------------(7)-----------------------------(7)----------------|

Repeat Intro Riff

Verse

|-----------------------------------------------------|
|-----------------------------------------------------|
|-9--9--9--9--9--9--9--9--9--9--9--9--9---------------|
|-10-10-10-10-10-10-10-10-10-10-10-10-10--------------|
|-7--7--7--0--0--0--x--x--x--x--x--x--8---------------|
|----------7--7--7--9--9--9--10-10-10-----------------|

|-----------------------------------------------------|
|-----------------------------------------------------|
|-9--9--9--9--9--9--9--9--9--9--9--9--10--------------|
|-10-10-10-10-10-10-10-10-10-10-10-10-10--------------|
|-7--7--7--0--0--0--x--x--x--x--x--x--8---------------|
|----------7--7--7--9--9--9--10-10-10-----------------|

|-----------------------------------------------------|
|-----------------------------------------------------|
|-12-12-12-9--9--9--9--9--9--9--9--9--10--------------|
|-10-10-10-10-10-10-10-10-10-10-10-10-10--------------|
|-7--7--7--0--0--0--x--x--x--x--x--x--8---------------|
|----------7--7--7--9--9--9--10-10-10-----------------|

|-----------------------------------------------------|
|-----------------------------------------------------|
|-9--9--9--9--9--9--9--9--9--9--9--9--10--------------|
|-10-10-10-10-10-10-10-10-10-10-10-10-10--------------|
|-7--7--7--0--0--0--x--x--x--x--x--x--8---------------|
|----------7--7--7--9--9--9--10-10-10-----------------|

Pre-chorus

|-----------------------------------------------------|
|-----------------------------------------------------|
|-9-----9-----9-----9-----9-----12--------------------|
|-10-x7-10-x8-10-x7-10-x8-10-x7-10-x7-----------------|
|-12----11----10----9-----8-----8---------------------|
|-----------------------------------------------------|

Chorus

|-----------------------------------------------------------------|
|-----------------------------------------------------------------|
|-9--9--9---------9--9--9--9------9--9--9--10-----9--9--9--9------|
|-10-10-10-10-----10-10-10-10-----10-10-10-10-x14-10-10-10-10-x14-|
|-7--7--7--10-x14-7--7--7--0--x14-7--7--7--8------7--7--7--0------|
|----------10-------------(7)-----------------------------(7)-----|

|----------------------------------------------------------------------------|
|----------------------------------------------------------------------------|
|-9--9--9---------9--9--9--9------9--9--9--10-----9--9--9--9------9--9--9----|
|-10-10-10-10-----10-10-10-10-----10-10-10-10-x14-10-10-10-10-x14-10-10-10---|
|-7--7--7--10-x14-7--7--7--0--x14-7--7--7--8------7--7--7--0------7--7--7----|
|----------10-------------(7)-----------------------------(7)----------------|

Brdige

|-----------------------------------------------------|
|-----------------------------------------------------|
|-----------------------------------------------------|
|-----------------------------------------------------|
|-----------------------------------------------------|
|-0-0-0-0-0-0-0-0-0-0-0-0-0-0-0-0-0-0-0-0-0-0-0-------|

|-----------------------------------------------------|
|-------------------------------------13--------------|
|-------------------------------------15b-------------|
|-----------------------------------------------------|
|-----------------------------------------------------|
|0-0-12-0-0-0-0-12-0-0-0-0-12-0-0-0-0-----------------|

|-----------------------------------------------------|
|-----------------------------------------------------|
|-----------------------------------------------------|
|-----------------------------------------------------|
|-----------------------------------------------------|
|0-0-12-0-0-0-0-12-0-0-0-0-12-0-0-0-0-3b--------------|

|-----------------------------------------------------|
|-------------------------------------9---------------|
|-------------------------------------11b-------------|
|-----------------------------------------------------|
|-----------------------------------------------------|
|0-0-12-0-0-0-0-12-0-0-0-0-12-0-0-0-0-----------------|

|-----------------------------------------------------|
|-----------------------------------------------------|
|-----------------------------------------------------|
|-----------------------------------------------------|
|-----------------------------------------------------|
|0-0-12-0-0-0-0-12-0-0-0-0-12-0-0-0-0-----------------|

Pre-chorus

|-----------------------------------------------------|
|-----------------------------------------------------|
|-9-----9-----9-----9-----9-----12--------------------|
|-10-x7-10-x8-10-x7-10-x8-10-x7-10-x7-----------------|
|-12----11----10----9-----8-----8---------------------|
|-----------------------------------------------------|

Chorus

|-----------------------------------------------------------------|
|-----------------------------------------------------------------|
|-9--9--9---------9--9--9--9------9--9--9--10-----9--9--9--9------|
|-10-10-10-10-----10-10-10-10-----10-10-10-10-x14-10-10-10-10-x14-|      *= PalmMute
|-7--7--7--10-x14-7--7--7--0--x14-7--7--7--8------7--7--7--0------|
|----------10-------------(7)-----------------------------(7)-----|
  *  *  *
|----------------------------------------------------------------|
|----------------------------------------------------------------|
|-9--9--9---------9--9--9--9------9--9--9--10-----9--9--9--9-----|
|-10-10-10-10-----10-10-10-10-----10-10-10-10-x14-10-10-10-10--0-|
|-7--7--7--10-x14-7--7--7--0--x14-7--7--7--8------7--7--7--0---0-|
|----------10-------------(7)-----------------------------(7)--0-|
Tap to rate this tab
# A B C D E F G H I J K L M N O P Q R S T U V W X Y Z