Song name
# A B C D E F G H I J K L M N O P Q R S T U V W X Y Z

Big D And The Kids Table - Little Bitch tab

Intro: 

          
e|----------------------------------------------------------------|
B|--------7-7-h5-----4---6^7--4------6--6--6--x--9--x--13---------|
G|--------5-5-h5--5--3---5-6--3---5--5--5--5--x--8--x--12---------|
D|---5-------------5---------------5------------------------------|
A|---3------------------------------------------------------------|
E|----------------------------------------------------------------|

             
e|------------------------------------------------------------|
B|----7-7-h5-----4---6^7--4------6--6--6--x--9--9--x--13--13--|
G|----5-5-h5--5--3---5-6--3---5--5--5--5--x--8--8--x--12--12--|
D|-------------5---------------5------------------------------|
A|------------------------------------------------------------|
E|------------------------------------------------------------|

"one two!"

Verse 1: (ska offbeat)

       C                        F
If you ever hear a noise in the night,
                    C
your body starts to sweat.
                         F
It shakes and shivers in fright,

you go to sleep with your
C                     F
mother she hates your guts.
                   C                         F
She knows that you love her so she holds you tight
                C                     F
all through the night until the broad daylight.
                          C                    F
And when she doesn't come home you gotta sleep alone.
                  C                      F
Then you wet your bed and I think that's sad.
              C                         F
For a girl of nineteen that's more than sad

IT'S OBSCENE!

interlude 1:
             
e|------------------------------------------------------------|
B|----7-7-h5-----4---6^7--4------6--6--6--x--9--9--x--13--13--|
G|----5-5-h5--5--3---5-6--3---5--5--5--5--x--8--8--x--12--12--|
D|-5------------5---------------5-----------------------------|
A|-3----------------------------------------------------------|
E|------------------------------------------------------------|

"one two!"

verse 2: (same chords, same offbeat)

Your girlfriend's sweet a little seventeen.
She's got the layered hair and the flared jeans.
You know what that means?
She's just a little queen.
She shares your London flat.
She thinks that London's where it's at
although it stinks and when it rains you wear your hat
and your plum colored PVC wet look maxi-Mac
You tie your ginger hair back in a bun;
you're the ugliest creature, UNDER THE SUN! 

interlude 2:
              
e|------------------------------------------------------------|
B|----7-7-h5-----4---6^7--4------6--6--6--x--9--9--x--13--13--|
G|----5-5-h5--5--3---5-6--3---5--5--5--5--x--8--8--x--12--12--|
D|-5------------5---------------5-----------------------------|
A|-3----------------------------------------------------------|
E|------------------------------------------------------------|

"one two!"
GO!

solo: 

e|----------------------------------------------------------------------|
B|--7-h8-8--7-h8-8--7-h8-8--------8-8-8---------------------------------|
G|--6-h7-7--6-h7-7--6-h7-7--8--5--7-7-7--8-5-10-------------------------|
D|----------------------------------------------------------------------|
A|----------------------------------------------------------------------|
E|----------------------------------------------------------------------|
fuck the rest of that

"one two!"

And you think it's about time that you die 
and I agree, so you decide on suicide.
You tried, but you never quite carried it off;
you only wanted to die in order to show off.
And if you think you're gonna bleed all over me,
you're even wronger than you'd normally be.
And the only things you want to see are kitsch.
The only thing you want to be is rich.
Your little pink pointed nose begins to twitch
I know you know YOU'RE JUST A LITTLE...BITCH!

interlude 3:
              
e|------------------------------------------------------------|
B|----7-7-h5-----4---6^7--4------6--6--6--x--9--9--x--13--13--|
G|----5-5-h5--5--3---5-6--3---5--5--5--5--x--8--8--x--12--12--|
D|-5------------5---------------5-----------------------------|
A|-3----------------------------------------------------------|
E|------------------------------------------------------------|

"one two!"
Tap to rate this tab
# A B C D E F G H I J K L M N O P Q R S T U V W X Y Z