Song name
# A B C D E F G H I J K L M N O P Q R S T U V W X Y Z

Big Foot Mama - Led S Severa tab

Band / Artist : Big Foot Mama
Song title : Led s severa
Tabbed by : ????
Edit by : Alias
Home page : www.trzalica.com

Intro
Fis mol A B mol E
E|-------2----------5----------2------------|
B|-------2----------5----------3------------|
G|-----2---2-----------------4---4--------9-|
D|----------------7---7-----------------9---|
A|-----------------------0-2--------0-7-----|
E|-0-2--------0-5---------------------------|

Solo with wha-wha after intro:
E|---------------------------------
B|---------------------------------
G|-6-6-6-6-6-6-7-7-6-6-6-6-6-6-6-6- 
D|--------------------------------- 
A|---------------------------------
E|---------------------------------

E|---------------------------------|
B|---------------------------------|
G|-4-4-4-4-4-4-6-6-4-4-4-4-4-4-4-4-|
D|---------------------------------|
A|---------------------------------|
E|---------------------------------|


Bridge:
Fis5 A5 B5 E5
E|---------------|
B|---------------|
G|------2--4-----|
D|-4----2--4--2--|
A|-4----0--2--2--|
E|-2----------0--|


"prav dobr vem"
E|---------------|
B|-------------7-|
G|-----9---9-----|
D|---------------|
A|-7-7---7---5---|
E|---------------|

Chorus:
D5 Fis5 G5 D5
E|-------------------------|
B|-------------------------|
G|-7--7--------------7--7--|
D|-7--7--4--4--5--5--7--7--|
A|-5--5--4--4--5--5--5--5--|
E|-------2--2--3--3--------|


Solo 1:
E|-----------------------9------7----|
B|---------------------7----7-5----5-|
G|-6--6-6b--2---2-4------------------|
D|-----------------------------------|
A|-----------------------------------|
E|-----------------------------------|

E|-----------------------9------7--------|
B|---------------------7----7-5----5-----|
G|-6--6-6b--2---2-4------------------6---|
D|---------------------------------------|
A|---------------------------------------|
E|---------------------------------------|


Solo 2
E|---------------------------------------------|
B|------------------------------------10-------|
G|-7-/11--11--9-9-11--11---11----9-11-----11---|
D|---------------------------------------------|
A|---------------------------------------------|
E|---------------------------------------------|

E|--------------------------|
B|-----10-10------10-12-14--|
G|-9-11--------11-----------|
D|--------------------------|
A|--------------------------|
E|--------------------------|

E|-14---15--15--\9-----13b-13b-13b----|
B|------------------------------------|
G|------------------------------------|
D|------------------------------------|
A|------------------------------------|
E|------------------------------------|

E|---------------------12--12------|
B|-10----12--12--10----------------|
G|---------------------------------|
D|---------------------------------|
A|---------------------------------|
E|---------------------------------|

Solo 3:
___D______________F#m
E|--------------------------------|
B|---------7--------------7-------|
G|-7-7-7-7---7----6-6-6-6---------|
D|--------------------------------|
A|--------------------------------|
E|--------------------------------|

___G________D
E|--------------------|
B|-8---8----7---7-----|
G|-7---7----7---7-----|
D|--------------------|
A|--------------------|
E|--------------------|
Tap to rate this tab
# A B C D E F G H I J K L M N O P Q R S T U V W X Y Z