Guitaretab - guitar tabs
Song name
# A B C D E F G H I J K L M N O P Q R S T U V W X Y Z

Big Foot Mama - Neki Sladkega tab

Band / Artist :Big Foot Mama
Song title :Neki sladkega

Intro:

e------------------------------------------------|
B------------------------------------------------|
G--------------------------4-5-------------------|
D--------------7-5-4-----7-------5-5-5-----------|
A----7-6-7---5---------0---------------7---------|
E--0---------------------------0-----------------|


Verse same as intro:

In zapiha puščavski vihar
Dvigne pesek meter od tal
S tal vstane mlado telo
Do oči zakrito z lepljivo snovjo
Ne razume več mojih besed
Ne dosegam njenih zvezd


Chours:                                            e5
e--------------------------------------------------|
B--------------------------------------------------|
G-------------------------------4-5----------------|
D-----------------7-5-4-------7------------22222---|
A---7-6-7-------5-----------0--------------22222---|
E-0----------------------------------------00000---|
                                            PM..

E5                    A5
v očeh pa najdem neki sladkega
      C5  H5 A5  H5 E5
sam hudič ne ve, zakaj
E5                    D5
v očeh le najdem neki sladkega
D5                  C5
ki me vleče spet nazaj
       E5
spet nazaj


Verse same as intro:

Podnev je vroče, ponoč mi je mraz
Na obzorju se svetlika obraz
Proti vzhodu kaplje dežja
So le krinka za potoke solza
Zato bi najrajš do smrti ostal
In dilemo bi pregnal


Chours:
E5                    A5
v očeh pa najdem neki sladkega
      C5  H5 A5  H5 E5
sam hudič ne ve, zakaj
E5                    D5
v očeh le najdem neki sladkega
D5                  C5
ki me vleče spet nazaj
       E5
spet nazaj

Solo:
[ Tab from: http://www.guitaretab.com/b/big-foot-mama/92871.html ]
e-----------------------------------------------------------------|
B-12b-12-12-12---12b-x-12-x-------12b-12-12-12---12b-x-12-x-------|
G-12b-12-12-12---12b-x-12-x--9~---12b-12-12-12---12b-x-12-x--9~---|
D-----------------------------------------------------------------|
A-----------------------------------------------------------------|
E-----------------------------------------------------------------|

e-----------------------------------------------------------------|
B-12b-12-12-12---12b-x-12-x-------12b-12-12-12---12b-x-12-x-------|
G-12b-12-12-12---12b-x-12-x--9~---12b-12-12-12---12b-x-12-x--9~---|
D-----------------------------------------------------------------|
A-----------------------------------------------------------------|
E-----------------------------------------------------------------|

e------------------------------|
B-14h15h15h15-x-14h15h15h15~---|
G-14-14-14-14-x-14-14-14-14~---|
D------------------------------|
A------------------------------|
E------------------------------|

e-----------------------------------------------------------------|
B-12b-12-12-12---12b-x-12-x-------12b-12-12-12---12b-x-12-x-------|
G-12b-12-12-12---12b-x-12-x--9~---12b-12-12-12---12b-x-12-x--9~---|
D-----------------------------------------------------------------|
A-----------------------------------------------------------------|
E-----------------------------------------------------------------|


e-----------------------------------------------|
B-----------------------------------------------|
G-7b-7h9p7-5---5-5------------------------------|
D------------7------7-9-7--7h9p7-7~-7-7-5-7~----|
A-----------------------------------------------|
E-----------------------------------------------|


e---------------------------------------|
B-b9-9-9-9-9-9--b13-13-b13-13-13>s------|
G-b9-9-9-9-9-9--b12-12-b12-12-12>s------|
D---------------------------------------|
A---------------------------------------|
E---------------------------------------|


Chours:

Outro same as intro
Related for Neki Sladkega tab