Song name
# A B C D E F G H I J K L M N O P Q R S T U V W X Y Z

Big Scary - Purple tab

Tabbed by: Hayden Spiteri

Email: haydenspiteri@gmail.com

This is my first tab, if you find anything wrong just email me

Tuning: Down 1/2 Step (low to high:  Eb, Ab, Db, Gb, Bb, Eb)

| h  hammer-on
| p  pull-off
| x  palm mute

VERSE
e|---------------------------------------------------------------|
B|---------------------------------------------------------------|
G|---------------------------------------------------------------|
D|---------------------------------------------------------------|
A|-7---7--10--7--10--7--10--7--10--7-----------------------------|
E|---------------------------------------------------------------|

e|---------------------------------------------------------------|
B|---------------------------------------------------------------|
G|---------------------------------------------------------------|
D|---------------------------------------------------------------|
A|---------------------------------------------------------------|
E|-7---7--10--7--10--7--10--7--10--7-----------------------------|

e|---------------------------------------------------------------|
B|---------------------------------------------------------------|
G|---------------------------------------------------------------|
D|---------------------------------------------------------------|
A|---------------------------------------------------------------|
E|-3---0--0--0--0--0--0--------3---0--0--0--0--0--0--------------| X4



e|---------------------------------------------------------------|
B|---------------------------------------------------------------|
G|---------------------------------------------------------------|
D|-9--9--9-9-----------------------------------------------------|
A|-7--7--7-7-----------------------------------------------------|
E|---------------------------------------------------------------|

e|---------------------------------------------------------------|
B|---------------------------------------------------------------|
G|---------------------------------------------------------------|
D|---------------------------------------------------------------|
A|---------------------------------------------------------------|
E|-3---0--0--0--0--0--0--------3---0--0--0--0--0--0--------------|X2



e|---------------------------------------------------------------|
B|---------------------------------------------------------------|
G|---------------------------------------------------------------|
D|---------------------------------------------------------------|
A|-7---7--10--7--10--7--10--7--10--7-----------------------------|
E|---------------------------------------------------------------|

e|---------------------------------------------------------------|
B|---------------------------------------------------------------|
G|---------------------------------------------------------------|
D|---------------------------------------------------------------|
A|---------------------------------------------------------------|
E|-7---7--10--7--10--7--10--7--10--7-----------------------------|

e|---------------------------------------------------------------|
B|---------------------------------------------------------------|
G|---------------------------------------------------------------|
D|---------------------------------------------------------------|
A|---------------------------------------------------------------|
E|-3---0--0--0--0--0--0--------3---0--0--0--0--0--0--------------|X2


HOOK
e|---------------------------------------------------------------|
B|---------------------------------------------------------------|
G|---------------------------------------------------------------|
D|-9--9--9-9-----------------------------------------------------|
A|-7--7--7-7-----------------------------------------------------|
E|---------------------------------------------------------------|

e|---------------------------------------------------------------|
B|---------------------------------------------------------------|
G|---------------------------------------------------------------|
D|---------------------------------------------------------------|
A|---------------------------------------------------------------|
E|-3---0--0--0--0--0--0--------3---0--0--0--0--0--0--------------|

e|---------------------------------------------------------------|
B|---------------------------------------------------------------|
G|---------------------------------------------------------------|
D|-9--9--9-9-----------------------------------------------------|
A|-7--7--7-7-----------------------------------------------------|
E|---------------------------------------------------------------|

SOLO
e|---------------------------------------------------------------|
B|---------------------------------------------------------------|
G|---------------------------12--9-------------------------------|
D|-----------------9--12--9--------------------------------------|
A|---------10--12------------------------------------------------|
E|-0--12---------------------------------------------------------|

e|---------------------------------------------------------------|
B|---------------------------------------------------------------|
G|---------------------------------------------------------------|
D|------------10--12--10-----------------------------------------|
A|-----9--12--------------9--12----------------------------------|
E|-0-------------------------------------------------------------|

e|--------10-----------------------------------------------------|
B|----12------12--10---------------------------------------------|
G|--------------------12--9--12--9-------------------------------|
D|---------------------------------------------------------------|
A|---------------------------------------------------------------|
E|-0-------------------------------------------------------------|

e|---------------------------------------------------------------|
B|---------------------------------------------------------------|
G|---------------------------------------------------------------|
D|----9--12--9---------------------------------------------------|
A|--------------12--10------10-----------------------------------|
E|-0--------------------12---------------------------------------|x2


BRIDGE
e|---------------------------------------------------------------|
B|---------------------------------------------------------------|
G|---------------------------------------------------------------|
D|---------------------------------------------------------------|
A|-----------------------10--------------------------------------|
E|-0--10h-12h-12p10--(x7)----------------------------------------|

e|---------------------------------------------------------------|
B|---------------------------------------------------------------|
G|---------------------------------------------------------------|
D|---------------------------------------------------------------|
A|-----------------------0---------------------------------------|
E|-0--10h-12h-12p10--(x7)----------------------------------------|x2

e|---------------------------------------------------------------|
B|---------------------------------------------------------------|
G|---------------------------------------------------------------|
D|---------------------------------------------------------------|
A|-----------------------10--------------------------------------|
E|-0--10h-12h-12p10--(x7)----------------------------------------|
   x   x   x   x x       x
e|---------------------------------------------------------------|
B|---------------------------------------------------------------|
G|---------------------------------------------------------------|
D|---------------------------------------------------------------|
A|-----------------------0---------------------------------------|
E|-0--10h-12h-12p10--(x7)----------------------------------------|x2
   x   x   x   x x       x

VERSE
e|---------------------------------------------------------------|
B|---------------------------------------------------------------|
G|---------------------------------------------------------------|
D|---------------------------------------------------------------|
A|-7---7--10--7--10--7--10--7--10--7-----------------------------|
E|---------------------------------------------------------------|

e|---------------------------------------------------------------|
B|---------------------------------------------------------------|
G|---------------------------------------------------------------|
D|---------------------------------------------------------------|
A|---------------------------------------------------------------|
E|-7---7--10--7--10--7--10--7--10--7-----------------------------|

e|---------------------------------------------------------------|
B|---------------------------------------------------------------|
G|---------------------------------------------------------------|
D|---------------------------------------------------------------|
A|---------------------------------------------------------------|
E|-3---0--0--0--0--0--0--------3---0--0--0--0--0--0--------------| X4

HOOK
e|---------------------------------------------------------------|
B|---------------------------------------------------------------|
G|---------------------------------------------------------------|
D|-9--9--9-9-----------------------------------------------------|
A|-7--7--7-7-----------------------------------------------------|
E|---------------------------------------------------------------|

e|---------------------------------------------------------------|
B|---------------------------------------------------------------|
G|---------------------------------------------------------------|
D|---------------------------------------------------------------|
A|---------------------------------------------------------------|
E|-3---0--0--0--0--0--0--------3---0--0--0--0--0--0--------------|

e|---------------------------------------------------------------|
B|---------------------------------------------------------------|
G|---------------------------------------------------------------|
D|-9--9--9-9-----------------------------------------------------|
A|-7--7--7-7-----------------------------------------------------|
E|---------------------------------------------------------------|

SOLO
e|---------------------------------------------------------------|
B|---------------------------------------------------------------|
G|---------------------------12--9-------------------------------|
D|-----------------9--12--9--------------------------------------|
A|---------10--12------------------------------------------------|
E|-0--12---------------------------------------------------------|

e|---------------------------------------------------------------|
B|---------------------------------------------------------------|
G|---------------------------------------------------------------|
D|------------10--12--10-----------------------------------------|
A|-----9--12--------------9--12----------------------------------|
E|-0-------------------------------------------------------------|

e|--------10-----------------------------------------------------|
B|----12------12--10---------------------------------------------|
G|--------------------12--9--12--9-------------------------------|
D|---------------------------------------------------------------|
A|---------------------------------------------------------------|
E|-0-------------------------------------------------------------|

e|---------------------------------------------------------------|
B|---------------------------------------------------------------|
G|---------------------------------------------------------------|
D|----9--12--9---------------------------------------------------|
A|--------------12--10------10-----------------------------------|
E|-0--------------------12---------------------------------------|x2

OUTRO
e|---------------------------------------------------------------|
B|---------------------------------------------------------------|
G|---------------------------------------------------------------|
D|---------------------------------------------------------------|
A|-----------------------10--------------------------------------|
E|-0--10h-12h-12p10--(x7)----------------------------------------|

e|---------------------------------------------------------------|
B|---------------------------------------------------------------|
G|---------------------------------------------------------------|
D|---------------------------------------------------------------|
A|-----------------------*0--------------------------------------|
E|-0--10h-12h-12p10--(x7)----------------------------------------|x4

*Dont play the note on the last time you play the outro

Hope this helped
Tap to rate this tab
 
# A B C D E F G H I J K L M N O P Q R S T U V W X Y Z