Song name
# A B C D E F G H I J K L M N O P Q R S T U V W X Y Z

Billy Boy On Poison - Happy Valentines Day tab

-------------------------------------------------------------------------------
			     HAPPY VALENTINE'S DAY - Billy Boy on Poison
-------------------------------------------------------------------------------
Tabbed by: ironmanben
Email: bentrooper@gmail.com

Tuning: e B G D A E

main riff:
e|-----------0-----------0-----------0-----------|
B|---5-------0---5-------0---5-------0-----------|
G|---4-2^(4)-----4-2^(4)-----4-2^(4)---3-3-3-2-0-|
D|-------------------------------------x-x-x-x---|
A|-------------------------------------x-x-x-x-x-|
E|-0-----------0-----------0-----------3-3-3-2-0-|
-|                                               |
e|-----------------------------------------------|
B|---5-----------5-----------5-------------------|
G|---4-2^(4)0----4-2^(4)0----4-2^(4)0--3-3-3p2p0-|
D|------------2-----------2-----------2----------|
A|-----------------------------------------------|
E|-----------------------------------------------|

chorus:
(both guitars)
e|---------------------------------|
B|---------------------------------|
G|---------------------------------|
D|-7-7-7-7-7-7-7-7-5-5-5-5-4-4-3-3-|
A|-7-7-7-7-7-7-7-7-5-5-5-5-4-4-3-3-|
E|-5-5-5-5-5-5-5-5-3-3-3-3-2-2-1-1-|
-|                                 |
e|---------------------------------|
B|---------------------------------|
G|-6-6-6-6-6-6-6-6-4-4-4-4-3-3-2-2-|
D|-7-7-7-7-7-7-7-7-5-5-5-5-4-4-3-3-|
A|-7-7-7-7-7-7-7-7-5-5-5-5-4-4-3-3-|
E|-5-5-5-5-5-5-5-5-3-3-3-3-2-2-1-1-|

solo:
e|-7-------12------12-----12------------12----------------------------------|
B|-10^(12)-15^(17)-15^(17)15^(17)-15-15----15-------------------------------|
G|--------------------------------15^---------------------------------12----|
D|----------------------------------------------2^-0-------12-14-12-14---12-|
A|---------------------------------------------------2-0-2------------------|
E|--------------------------------------------0-----------------------------|

e|------------------------------------------------15p12------------------------|
B|-----------------------------------------------------15p12-------12----------|
G|---12---------------------------------------0-------------14p1214--14p12--D--|
-14--14-14-12-------------------------0-1-2---2-------------------------14-----|
A|-------------14-12--12-----------0-1-2---------------------------------------|
E|------------------15--15-12-0-0-3--------------------------------------------|


e|---------------------------------15-17^(19)17^(19)17-15---3p03p03p0...-----|
B|-------------------------------------------------------17------------------|
G|-14p12-----14^(16)-14-12----------------------------------------------\\\\-|
D|------14-14--------------14-14-12------------------------------------------|
A|---------------------------------------------------------------------------|
E|---------------------------------------------------------------------------|

bridge:
e|----------------------------|
B|-----8-7-8-7--3--5-5-5-5----|
G|-----9-8-9-8--4--6-6-6-6-/0-|
D|----------------------------|
A|----------------------------|
E|----------------------------|
-|                            |
e|----------------------------|
B|----------------------------|
G|-5-5-5-5-5-5-----2-2-2-2----|
D|-5-5-5-5-5-5--5--2-2-2-2----|
A|-3-3-3-3-3-3--5--0-0-0-0----|
E|--------------3-------------|

Order:
main riff (guitar 1 only) x2
main riff x6
chorus x1
main riff x5
chorus x1
main riff x1
chorus x1
main riff x1
guitar solo (main riff x4, chorus x1, main riff x1 under)
bridge x1
main riff x1
bridge x1
main riff x2
main riff (guitars silent) x4
main riff x4
chorus x1
main riff x1
chorus x1
main riff x1
chorus x1
main riff x1
chorus x1
main riff x2


| /  slide up
| \  slide down
| h  hammer-on
| p  pull-off
| ~  vibrato
| +  harmonic
| x  Mute note
===============================================================================
Tap to rate this tab
# A B C D E F G H I J K L M N O P Q R S T U V W X Y Z