Song name
# A B C D E F G H I J K L M N O P Q R S T U V W X Y Z

Billy Boy On Poison - 4 Leaf Clover tab

-------------------------------------------------------------------------------
			     4 Leaf Clover - Billy Boy On Poison
-------------------------------------------------------------------------------
Tabbed by: icejavaman
Email: mzacatac@gmail.com

Tuning: Standard

Listen to the song for the timings. Enjoy!

Verse:
e|--------------------------------------------------------------------------|
B|--------------------------------------------------------------------------|
G|5-5-5-5-5-5-5-5-4-4-4-4-4-4-4-4-2-2-2-2-2-2-2-2-4-4-4-4-4-4-4-4-----------| 
D|--------------------------------------------------------------------------|
A|3-3-3-3-3-3-3-3-3-3-3-3-3-3-3-3-3-3-3-3-3-3-3-3-3-3-3-3-3-3-3-3-----------|
E|--------------------------------------------------------------------------| x3

e|--------------------------------------------------------------------------|
B|6-6-6-6-6-6-6-6-5-5-5-5-5-5-5-5-3-3-3-3-3-3-3-3-5-5-5-5-5-5-5-5-----------|
G|--------------------------------------------------------------------------|
D|3-3-3-3-3-3-3-3-3-3-3-3-3-3-3-3-3-3-3-3-3-3-3-3-3-3-3-3-3-3-3-3-----------|
A|--------------------------------------------------------------------------|
E|--------------------------------------------------------------------------|

e|--------------------------------------------------------------------------|
B|--------------------------------------------------------------------------|
G|5-5-5-5-5-5-5-5-4-4-4-4-4-4-4-4-2-2-2-2-2-2-2-2-0~~~~~~~~~~~~~~-----------| 
D|--------------------------------------------------------------------------|
A|3-3-3-3-3-3-3-3-3-3-3-3-3-3-3-3-3-3-3-3-3-3-3-3-3~~~~~~~~~~~~~~-----------|
E|--------------------------------------------------------------------------| 

CHORUS:
  D x8   G x8   C x16
e|-2-----3------0------------------------------------------------------|
B|-3-----0------1------------------------------------------------------|
G|-2-----0------0------------------------------------------------------|
D|-0-----0------2------------------------------------------------------|
A|-0-----2------3------------------------------------------------------|
E|-x-----3------x------------------------------------------------------|
x2

VERSE:
e|--------------------------------------------------------------------------|
B|--------------------------------------------------------------------------|
G|5-5-5-5-5-5-5-5-4-4-4-4-4-4-4-4-2-2-2-2-2-2-2-2-4-4-4-4-4-4-4-4-----------| 
D|--------------------------------------------------------------------------|
A|3-3-3-3-3-3-3-3-3-3-3-3-3-3-3-3-3-3-3-3-3-3-3-3-3-3-3-3-3-3-3-3-----------|
E|--------------------------------------------------------------------------| x2

e|--------------------------------------------------------------------------|
B|6-6-6-6-6-6-6-6-5-5-5-5-5-5-5-5-3-3-3-3-3-3-3-3-5-5-5-5-5-5-5-5-----------|
G|--------------------------------------------------------------------------|
D|3-3-3-3-3-3-3-3-3-3-3-3-3-3-3-3-3-3-3-3-3-3-3-3-3-3-3-3-3-3-3-3-----------|
A|--------------------------------------------------------------------------|
E|--------------------------------------------------------------------------|

e|--------------------------------------------------------------------------|
B|--------------------------------------------------------------------------|
G|5-5-5-5-5-5-5-5-4-4-4-4-4-4-4-4-2-2-2-2-2-2-2-2-0~~~~~~~~~~~~~~-----------| 
D|--------------------------------------------------------------------------|
A|3-3-3-3-3-3-3-3-3-3-3-3-3-3-3-3-3-3-3-3-3-3-3-3-3~~~~~~~~~~~~~~-----------|
E|--------------------------------------------------------------------------| 

CHORUS:
  D x8   G x8  C x16
e|-2-----3-----0------------------------------------------------------|
B|-3-----0-----1------------------------------------------------------|
G|-2-----0-----0------------------------------------------------------|
D|-0-----0-----2------------------------------------------------------|
A|-0-----2-----3------------------------------------------------------|
E|-x-----3-----x------------------------------------------------------|

D x8   G x8  C x16  F(?)x1 
e|-2-----3-----0----1~-------------------------------------------------|
B|-3-----0-----1----1~-------------------------------------------------|
G|-2-----0-----0----2~-------------------------------------------------|
D|-0-----0-----2----3~-------------------------------------------------|
A|-0-----2-----3----3~-------------------------------------------------|
E|-x-----3-----x----1~-------------------------------------------------|

Bridge:

e|--3b/-----------2b/-------------3b/----------2b/--------------------------|
B|--------------------------------------------------------------------------|
G|--------------------------------------------------------------------------|
D|--------------------------------------------------------------------------|
A|--------------------------------------------------------------------------|
E|--------------------------------------------------------------------------|

Verse:

e|--------------------------------------------------------------------------|
B|--------------------------------------------------------------------------|
G|5-5-5-5-5-5-5-5-4-4-4-4-4-4-4-4-2-2-2-2-2-2-2-2-4-4-4-4-4-4-4-4-----------| 
D|--------------------------------------------------------------------------|
A|3-3-3-3-3-3-3-3-3-3-3-3-3-3-3-3-3-3-3-3-3-3-3-3-3-3-3-3-3-3-3-3-----------|
E|--------------------------------------------------------------------------| 

e|--------------------------------------------------------------------------|
B|--------------------------------------------------------------------------|
G|5-5-5-5-5-5-5-5-4-4-4-4-4-4-4-4-2-2-2-2-2-2-2-2-0~~~~~~~~~~~~~~-----------| 
D|--------------------------------------------------------------------------|
A|3-3-3-3-3-3-3-3-3-3-3-3-3-3-3-3-3-3-3-3-3-3-3-3-3~~~~~~~~~~~~~~-----------|
E|--------------------------------------------------------------------------| 

Chorus: Same.
************************************

| /   slide up
| \   slide down
| h   hammer-on
| p   pull-off
| ~   vibrato
| +   harmonic
| x   Mute note
| b   Bend
| pb  Pre-bend
| br  Bend release
| pbr Pre-bend release
| brb Bend release bend

************************************
Tap to rate this tab
 
# A B C D E F G H I J K L M N O P Q R S T U V W X Y Z