Song name
# A B C D E F G H I J K L M N O P Q R S T U V W X Y Z

Billy Boy On Poison - On My Way tab

----------------------------------------------------------------------------
			     On My Way - Billy Boy On Poison
----------------------------------------------------------------------------
                           www.billyboyonpoison.com   


Tabbed by: Bassface01
Email: guneagleluke@charter.net

Tuning: Standard (eBGDAE)

Verse:
Guitar 1:
e|------------------------------------------------------------------|
B|------------------------------------------------------------------|
G|------------------------------------------------------------------|
D|7757xxxxxxxxxxxxxxxx7757xxxxxxxxxxxxxxxx7757xxxxxxxxxxxxxxxx7757--|
A|7757xxxxxxxxxxxxxxxx7757xxxxxxxxxxxxxxxx7757xxxxxxxxxxxxxxxx7757--|
E|5535xxxxxxxxxxxxxxxx5535xxxxxxxxxxxxxxxx5535xxxxxxxxxxxxxxxx5535--|

e|-----------33--33---|
B|-----------33--33---|
G|-----------44--44---|
D|xxxxxxxxxxx55xx55---|
A|xxxxxxxxxxx55xx55---|
E|xxxxxxxxxxx33xx33---|

Guitar 2:
e|-------------------------------------------|
B|-------------------------------------------|
G|9--7-------------------7----9--7-----------|
D|-----10-7-----7--7--10-----------10-7--7---|
A|----------10-------------------------------|
E|-------------------------------------------|

e|------------------------------------------------|
B|------------------------------------------------|
G|9--7-------------------7----9--7-------11b(12)--|
D|-----10-7-----7--7--10-----------10-7-----------|
A|----------10------------------------------------|
E|------------------------------------------------|

Chorus:
e|------------------------------------------------------------|
B|------------------------------------------------------------|
G|2-2-5-5---------2-2-5-5---------2-2-5-5---------------------|
D|2-2-5-5-3-3-2-2-2-2-5-5-3-3-2-2-2-2-5-5-3-3-2-2-2-2-2-2-2-2-|
A|0-0-3-3-3-3-2-2-0-0-3-3-3-3-2-2-0-0-3-3-3-3-2-2-2-2-2-2-2-2-|
E|--------1-1-0-0---------1-1-0-0---------1-1-0-0-0-0-0-0-0-0-|

Solo:
e|-------------------------------------------|
B|-------------------------------------------|
G|9--7-------------------7----9--7-----------|
D|-----10-7-----7--7--10-----------10-7--7---|
A|----------10-------------------------------|
E|-------------------------------------------|

e|------------------------------------------------|
B|------------------------------------------------|
G|9--7-------------------7----9--7-------11b(12)--|
D|-----10-7-----7--7--10-----------10-7-----------|
A|----------10------------------------------------|
E|------------------------------------------------|

e|-----------8--8-7-------------10--10-16b(17)-------------8--8-7--|
B|----10-10--------------10-10---------16b(17)------10-10----------|
G|-/9-----------------/9-------------------------/9----------------|
D|-----------------------------------------------------------------|
A|-----------------------------------------------------------------|
E|-----------------------------------------------------------------|

e|19b(20)---------------------17----17-----|
B|19b(20)--------17--------17----17--------|
G|-----------------------------------------|
D|-----------------------------------------|
A|-----------------------------------------|
E|-----------------------------------------|

Guitar 1 plays regular verse and chorus.

End on...
e|--------|
B|--------|
G|--------|
D|-7757---|
A|-7757---|
E|-5535---|





| /  slide up
| \  slide down
| h  hammer-on
| p  pull-off
| ~  vibrato
| +  harmonic
| x  Mute note
============================================================================
Tap to rate this tab
 
# A B C D E F G H I J K L M N O P Q R S T U V W X Y Z