Song name
# A B C D E F G H I J K L M N O P Q R S T U V W X Y Z

Black Flag - Drinking & Driving tab

DRINKING & DRIVING
by: Black Flag

from: mike abraham (bobbyblu@star.net)
transcribed by mike abraham


intro
repeat 6 times

drink ...drive...kill!
|-----------------------------|
|-----------------------------|
|-----------------------------|
|-------5-4-------5-4---------|
|-5-5-5-----5-5-5-------------|
|-3-3-------3-3---------------|


hungover, tired sick and weak....

|-----------------------------|
|-----------------------------|
|-----------------------------|
|----5-5-5--3-3--3---3-5-----|
|--5-5-5-5--3-3--3-3-3-5-----|
|--0-3-3-3--1-1--1-0-1-3-----|

repeat 3 times
|-----------------------------|
|-----------------------------|
|-----------------------------|
|-------5-4-------5-4---------|
|-5-5-5-----5-5-5-------------|
|-3-3-------3-3---------------|

shoulda told yourself that you thought it was cool...

|-----------------------------|
|-----------------------------|
|--------2-1------------------|
|-2-2222-----0-0--1--11------|
|-----------------------------|
|-----------------------------|

what you want....                                          repeat 6 times like intro

|------------------------------------  |------------------------|
|------------------------------------  |------------------------|
|--2-1-0---2-1-0----2-1-0----2-1-0-- |------------------------|
|--------0---------------------------  |-------5-4-------5-4--- |
|-----------------4--------3---------  |------5---------5------ |
|------------------------------------   |--3-3-------3-3--------|
Tap to rate this tab
# A B C D E F G H I J K L M N O P Q R S T U V W X Y Z