Song name
# A B C D E F G H I J K L M N O P Q R S T U V W X Y Z

Black Flag - Wasted tab

#
Guitar tab for Wasted by Black Flag

words and music by Greg Ginn & Kieth Morris

from Black Flag's recordings Nervous Breakdown, The First Four Years,
Everything Went Black, and Wasted... Again.

transcribed by Mike Obrien. any questions, comments, or corrections are
welcome at corrupt@netcom.com
--------------------------------------------------------------------

  Intro/Verse (Riff 1)
  A5             D5 A5                    D5 A5
  1  &  2  &  3  &  4  &   1  &  2  &  3  &  4  &
e:------------------------|------------------------|
B:------------------------|------------------------|
G:---------------7--------|---------------7--------|
D:7--7--7--7--7--7--7--7--|7--7--7--7--7--7--7--7--|
A:7--7--7--7--7--5--7--7--|7--7--7--7--7--5--7--7--|
E:5--5--5--5--5-----5--5--|5--5--5--5--5-----5--5--|

  Chorus (Riff 2)
  C5                                                A#5
  1  &  2  &  3  &  4  &   1  &  2  &  3  &  4  &   1  &  2  &  3  &  4  &
e:------------------------|------------------------|------------------------|
B:------------------------|------------------------|------------------------|
G:------------------------|------------------------|------------------------|
D:10-10-10-10-10-10-10-10-|10-10-10-10-10-10-10-10-|8--8--8--8--8--8--8--8--|
A:10-10-10-10-10-10-10-10-|10-10-10-10-10-10-10-10-|8--8--8--8--8--8--8--8--|
E:8--8--8--8--8--8--8--8--|8--8--8--8--8--8--8--8--|6--6--6--6--6--6--6--6--|

  G#5         G5
  1  &  2  &  3  &  4  &
e:------------------------|
B:------------------------|
G:------------------------|
D:6--6--6--6--5--5--5--5--|
A:6--6--6--6--5--5--5--5--|
E:4--4--4--4--3--3--3--3--|

Those are the only two riffs in the song, very simple, just listen to the song
to find out the order...

Tap to rate this tab
# A B C D E F G H I J K L M N O P Q R S T U V W X Y Z