Song name
# A B C D E F G H I J K L M N O P Q R S T U V W X Y Z

Black Keys - Here I Am tab

-------------------------------------------------------------------------------
	      Here I Am – The Black Keys
-------------------------------------------------------------------------------
Tabbed by: Ben Pattyson	

Abbey Road Live Cover

Awesome Captain Beefheart cover! Cheers.

Intro

e|---------------------------------------------------------------------------|
B|---------------------------------------------------------------------------|
G|---------------------------------------------------------------------------|
D|---------------------------------------------------------------------------|
A|---------------------------------------------------------------------------|
E|-3-3--3-3--8-8--8-8--6-6--6-6--1-0-1--3-3--3-3--8-8--8-8--6-6--6-6--1-0-1--|

e|---------------------------------------------------------------------------|
B|---------------------------------------------------------------------------|
G|---------------------------------------------------------------------------|
D|---------------------------------------------------------------------------|
A|---------------------------------------------------------------------------|
E|-3-3--3-3--8-8--8-8--6-6--6-6--1-0-1--3-3--3-3--8-8--8-8--8h10-10-10-10----|

e|----------------------------------------------|
B|----------------------------------------------|
G|----------------------------------------------|
D|----------------------------------------------|
A|----------------------------------------------|
E|-8h10-10-10-10--8h10-10-10-10--8h10-10-10-10--|

Chorus

e|------------------------------------------------------|
B|------------------------------------------------------|
G|-4-x-x-4-x-x-9--x-x-9--x-x-11-x-x-11-x-x-4-x-x-4-x-x--| repeat
D|-5-x-x-5-x-x-10-x-x-10-x-x-12-x-x-12-x-x-5-x-x-5-x-x--|
A|-5-x-x-5-x-x-10-x-x-10-x-x-12-x-x-12-x-x-5-x-x-5-x-x--|
E|-3-x-x-3-x-x-8--x-x-8--x-x-10-x-x-10-x-x-3-x-x-3-x-x--|

e|------------|
B|------------|
G|-5b7--5--3--|
D|------------|
A|------------|
E|------------|

  ‘here I am…’
e|------------------------------------------------------------------|
B|------------------------------------------------------------------|
G|-----------------7-x-x-7-x-x-7-x-5-x-x-5-x-x-5-x------------------|
D|-5-x-x-5-x-x-5-x-7-x-x-7-x-x-7-x-5-x-x-5-x-x-5-x-7-x-x-7-x-x-7-x--|
A|-5-x-x-5-x-x-5-x-5-x-x-5-x-x-5-x-3-x-x-3-x-x-3-x-7-x-x-7-x-x-7-x--|
E|-3-x-x-3-x-x-3-x---------------------------------5-x-x-5-x-x-5-x--|

e|---------------------------------------------------------|
B|---------------------------------------------------------|
G|-5-x-x-5-x-x-5-x-7-x-7-x-5-x-5----------7-7-7-7-7-7-7-7--|
D|-5-x-x-5-x-x-5-x-7-x-7-x-5-x-5-5-5-5-5--7-7-7-7-7-7-7-7--|
A|-3-x-x-3-x-x-3-x-5-x-5-x-3-x-3-5-5-5-5--5-5-5-5-5-5-5-5--|
E|-------------------------------3-3-3-3-------------------|

Outro

e|------------------------------------------|
B|------------------------------------------|
G|------------------------------------------| x3
D|------------------------------------------|
A|-10-10--10-10--8-8--8-8--7-7--7-7--5-7-8--|
E|------------------------------------------|


e|---------------------------------------------|
B|---------------------------------------------|
G|---------------------------------------------|
D|---------------------------------------------|
A|-10-10--10-10--8-8--8-8--7-7--7-7--5-3-------|
E|----------------------------------------6-3--|

The End.


| b  Bend
| x  Mute note
===============================================================================
Tap to rate this tab
 
# A B C D E F G H I J K L M N O P Q R S T U V W X Y Z