Song name
# A B C D E F G H I J K L M N O P Q R S T U V W X Y Z

Black Keys - Ten Cent Pistol tab

Song: 10 Cent Pistol
Artist: The Black Keys
Album: Brothers

Tabbed by: Beckett Woodworth

Tuning: Standard

The chords come naturally to you when you play them to the rhythm of the song. Trust me.

       G                     F
e|-------------------|--------------|
B|----8-8--8----8-8--|--6--6-6--6---|
G|----7-7--7----7-7--|--5--5-5--5---|
D|-5--5-5-----5-5-5--|-----3-3--3---|
A|-------------------|--------------|
E|-------------------|--------------|

e|--------------------------------------|
B|--------------------------------------|
G|--------------------------------------|
D|-3/5--3h5-3h5--3----------------------|
A|-----------------5-3---3h5--1h3-------|
E|---------------------6-----------6p3--|

Guitar solo:
e|-----------------------------------------------------|
B|-8-8-8--8-8-11-8----8-----------------8----8-11-8----|
G|-----------------10----10-10-10-10-10---10-------10--|
D|-----------------------------------------------------|
A|-----------------------------------------------------|
E|-----------------------------------------------------|

e|------------------------/11--8------------------|
B|-8-8-8--8-8-11-8----8----------11-8----8h11-----|
G|-----------------10------------------10---------|
D|------------------------------------------------|
A|------------------------------------------------|
E|------------------------------------------------|

Guitar solo 2 (improvised in a C pentatonic)
e|-------11--------8h10p8-------|
B|--8-11---8--8-11-------8-11---|
G|------------------------------| x2
D|------------------------------|
A|------------------------------|
E|------------------------------|
Tap to rate this tab
 
# A B C D E F G H I J K L M N O P Q R S T U V W X Y Z