Guitaretab - guitar tabs
Song name
# A B C D E F G H I J K L M N O P Q R S T U V W X Y Z

Black Keys - Ill Be Your Man tab

Tapped by .-''-.Max.-''-. (Soul Project)

Intro:

e|--------------------------------------------------------|
H|-----10--------12--------14-----14-12-------------------|
G|-7s9-------7s9-------7s9--------------9-11p11-9---------|
D|--------------------------------------------------------|
A|--------------------------------------------------------|
E|--------------------------------------------------------|

Main Part:
[ Tab from: http://www.guitaretab.com/b/black-keys/162590.html ]
e|-------------------------|       |------------------------------|     
H|-------------------------|       |------------------------------|
G|-------------------------|       |--7-7---9-9-9-9---------------|
D|-7-7---4-4-4-4-----------|<(x12) |--7-7---9-9-9-9---------------|<(x2) 
A|-7-7---4-4-4-4-----------|       |--5-5---7-7-7-7---------------|
E|-5-5---2-2-2-2-----------|       |------------------------------|

e|----------------------------|
H|----------------------------|
G|-7-7-9-7-9-7-9-9------------|
D|-7-7-9-7-9-7-9-9------------|<(x1) 
A|-5-5-7-5-7-5-7-7------------|
E|----------------------------|

Repeat the Main Part and the Intro...the song is very easy...

.-''-.GuitaR RockS.-''-. Max (Soul Project)
Related for Ill Be Your Man tab