Song name
# A B C D E F G H I J K L M N O P Q R S T U V W X Y Z

Black Keys - Little Black Submarines tab

The Black Keys - Little Black Submarines

e|---------0--------------0-----------------------|
B|----1------1-------1------------1-----1-----1p0-|
G|--2----------2-0h2------2-----2-----2-----2-----|
D|--2------------------2------2-----2-----2-------|
A|--0------------------0--------------------------|
E|------------------------------------------------|

e|---------0-0-0----3-------------2-------------0--------|
B|-----1---1-1-1----0----0---3--------3---0-----2--2-----|
G|-----2---2-2-0----0--0---0------------2-------2----2---|
D|-----2---2-2-2----0------------------------0---------2-|
A|--0---------------2------------------------------------|
E|---------------3--3------------------------------------|
    Little black submarines...

e|------------------------------0----------------0-------|
B|----1-------1-----0-----------2---2----2-------------2-|
G|----2---2---------0-----------2---2p0----2p0-----2-----|
D|----2-----2-------0-----------2---2----------------2---|
A|-0----------------2-----2---0--------------------------|
E|---------------3--3-------3----------------------------|
       Put me back...

e|----------------3-------------2---2---------0---------|
B|----1--1--------0---0---0-----3-------0-----2---2-----|
G|----2------2----0-----0-------2-----2-------2-------2-|
D|----2----2------0----------0----------------2-----2---|
A|-0--------------2------------------------0------------|
E|-------------3--3-------------------------------------|
     Told my girl...

e|-----------------3------------0---------------0-------|
B|----1-------1----0---0---0----2---2---2-------------2-|
G|----2---2--------0-----0------2---2p0---2p0-----2-----|
D|----2-----2------0------------2---2---------------2---|
A|-0---------------2----------0-------------------------|
E|--------------3--3------------------------------------|
      This is wrecking my mi-i-ind.

e|----------------3-------------2---2---------0---------|
B|----1--1--------0---0---0-----3-------0-----2---2-----|
G|----2------2----0-----0-------2-----2-------2-------2-|
D|----2----2------0----------0----------------2-----2---|
A|-0--------------2------------------------0------------|
E|-------------3--3-------------------------------------|
  Ooh, can it be...

e|-------------------2---2---------0--------------0-------|
B|----1-------1------3-------0-----2---2---2------------2-|
G|----2---2----------2-----2-------2---2p0---2p0----2-----|
D|----2-----2-----0----------------2---2--------------2---|
A|-0----------------------------0-------------------------|
E|--------------------------------------------------------|
   They get lost...

e|----0-----------3-------------2---2---------0---------|
B|----1--1--------0---0---0-----3-------0-----2---2-----|
G|----2------2----0-----0-------2-----2-------2-------2-|
D|----2----2------0----------0----------------2-----2---|
A|-0--------------2------------------------0------------|
E|-------------3--3-------------------------------------|
  I should have seen it...

e|-------------------2---2---------0--------------0-------|
B|----1-------1------3-------0-----2---2---2------------2-|
G|----2---2----------2-----2-------2---2p0---2p0----2-----|
D|----2-----2-----0----------------2---2--------------2---|
A|-0----------------------------0-------------------------|
E|--------------------------------------------------------|
   A broken heart is bli-ind...

e|-------------------2---2----------------------------------------------------|
B|----1-------1------3-------0-----2-----2-----2-----2----2-----2-----2-----2-|
G|----2---2----------2-----2---------2p0---2p0---2p0--------2p0---2p0---2p0---|
D|----2-----2-----0-----------------------------------------------------------|
A|-0----------------------------0-----------------------0---------------------|
E|----------------------------------------------------------------------------|

e|----0-----------3-------------2---2---------0---------|
B|----1--1--------0---0---0-----3-------0-----2---2-----|
G|----2------2----0-----0-------2-----2-------2-------2-|
D|----2----2------0----------0----------------2-----2---|
A|-0--------------2------------------------0------------|
E|-------------3--3-------------------------------------|
                                                          (x4)
e|-------------------2---2---------0--------------0-------|
B|----1-------1------3-------0-----2---2---2------------2-|
G|----2---2----------2-----2-------2---2p0---2p0----2-----|
D|----2-----2-----0----------------2---2--------------2---|
A|-0----------------------------0-------------------------|
E|--------------------------------------------------------|

e|-------------------2---2---------0-----------------|
B|----1-------1------3-------0-----2-------2---------|
G|----2---2----------2-----2-------2---2p0-----------|
D|----2-----2-----0----------------2-----------------|
A|-0----------------------------0--------------------|
E|---------------------------------------------------|



Guitar 1
e|-5---5--5-5--3-3--3--3-3-|--------------5--5--3-3-|
B|-5---5--5-5--3-3--3--3-3-|-7---7--7-7-X-5--5--3-3-|
G|-5---5--5-5--4-4--4--4-4-|-7---7--7-7-X-6--6--4-4-|
D|-7---7--7-7--5-5--5--5-5-|-7---7--7-7-X-7--7--5-5-|
A|-7---7--7-7--5-5--5--5-5-|-5---5--5-5-X-7--7--5-5-|
E|-5---5--5-5--3-3--3--3-3-|--------------5--5--3-3-|

e|-5---5--5-5--3-3--3--3-3-|-5---5---5---5--|
B|-5---5--5-5--3-3--3--3-3-|-5---5---5---5--|
G|-5---5--5-5--4-4--4--4-4-|-5---5---5---5--|
D|-7---7--7-7--5-5--5--5-5-|-7---7---7---7--|
A|-7---7--7-7--5-5--5--5-5-|-7---7---7---7--|
E|-5---5--5-5--3-3--3--3-3-|-5---5---5---5--|

e|-5---5--5-5--3-3--3--3-3-|----------5--5--5-5--5-5-|
B|-5---5--5-5--3-3--3--3-3-|-7---7--7-5--5--5-5--5-5-|
G|-5---5--5-5--4-4--4--4-4-|-7---7--7-5--6--5-6--6-6-|
D|-7---7--7-7--5-5--5--5-5-|-7---7--7-7--7--7-7--7-7-|
A|-7---7--7-7--5-5--5--5-5-|-5---5--5-7--7--7-7--7-7-|
E|-5---5--5-5--3-3--3--3-3-|----------5--5--5-5--5-5-|

e|-5---5--5-5--3-3--3--3-3-|-5---5--5-5--5-5--5-5-|
B|-5---5--5-5--3-3--3--3-3-|-5---5--5-5--5-5--5-5-|
G|-5---5--5-5--4-4--4--4-4-|-5---5--5-5--5-5--5-5-|
D|-7---7--7-7--5-5--5--5-5-|-7---7--7-7--7-7--7-7-|
A|-7---7--7-7--5-5--5--5-5-|-7---7--7-7--7-7--7-7-|
E|-5---5--5-5--3-3--3--3-3-|-5---5--5-5--5-5--5-5-|

*-*-*-*-*-*-*-*-*-*-*-*-*-*-*-*-*-*-*-*-*-*-*-*
e|-5---5--5-5--3-3--3--3-3-|--------------5--5--3-3-|
B|-5---5--5-5--3-3--3--3-3-|-7---7--7-7-X-5--5--3-3-|
G|-5---5--5-5--4-4--4--4-4-|-7---7--7-7-X-6--6--4-4-|
D|-7---7--7-7--5-5--5--5-5-|-7---7--7-7-X-7--7--5-5-|
A|-7---7--7-7--5-5--5--5-5-|-5---5--5-5-X-7--7--5-5-|
E|-5---5--5-5--3-3--3--3-3-|--------------5--5--3-3-|

e|-5---5--5-5--3-3--3--3-3-|-5---5---5---5--|
B|-5---5--5-5--3-3--3--3-3-|-5---5---5---5--|
G|-5---5--5-5--4-4--4--4-4-|-5---5---5---5--|
D|-7---7--7-7--5-5--5--5-5-|-7---7---7---7--|
A|-7---7--7-7--5-5--5--5-5-|-7---7---7---7--|
E|-5---5--5-5--3-3--3--3-3-|-5---5---5---5--|

Guitar 2
e|---------------------------------|-----------------------------------|
B|--5--5-----5--5-----5--5-----7b--|--5--5-----5--------5--5----5--5---|
G|--7b-7b----7b-7b----7b-7b----7b--|--7b-7b----7bp5-----7b-7b---7b-7b--|
D|---------------------------------|----------------7------------------|
A|---------------------------------|-----------------------------------|
E|---------------------------------|-----------------------------------|
*-*-*-*-*-*-*-*-*-*-*-*-*-*-*-*-*-*-*-*-*-*-*-*



Guitar 1
e|-5---5--5---3---3--3--------------5---5--5-|
B|-5---5--5---3---3--3---7---7--7---5---5--5-|
G|-5---5--5---4---4--4---7---7--7---6---6--6-|
D|-7---7--7---5---5--5---7---7--7---7---7--7-|
A|-7---7--7---5---5--5---5---5--5---7---7--7-|
E|-5---5--5---3---3--3--------------5---5--5-|
  Treasure maps...

e|-5---5--5---3---3--3---5---5--5--5--5--5--5--|
B|-5---5--5---3---3--3---5---5--5--5--5--5--5--|
G|-5---5--5---4---4--4---5---5--5--5--5--5--5--|
D|-7---7--7---5---5--5---7---7--7--7--7--7--7--|
A|-7---7--7---5---5--5---7---7--7--7--7--7--7--|
E|-5---5--5---3---3--3---5---5--5--5--5--5--5--|

                            Guitar 2
                            e|---------------------|
                            B|---------------------|
                            G|--7h9p7\5------------|
                            D|---------------------|
                            A|----------5h7p5------|
                            E|----------------8--5-|

Guitar 1
e|-5---5--5---3---3--3--------------5---5--5-|
B|-5---5--5---3---3--3---7---7--7---5---5--5-|
G|-5---5--5---4---4--4---7---7--7---6---6--6-|
D|-7---7--7---5---5--5---7---7--7---7---7--7-|
A|-7---7--7---5---5--5---5---5--5---7---7--7-|
E|-5---5--5---3---3--3--------------5---5--5-|

e|-5---5--5---3---3--3---5---5--5--5--5--5--5--|
B|-5---5--5---3---3--3---5---5--5--5--5--5--5--|
G|-5---5--5---4---4--4---5---5--5--5--5--5--5--|
D|-7---7--7---5---5--5---7---7--7--7--7--7--7--|
A|-7---7--7---5---5--5---7---7--7--7--7--7--7--|
E|-5---5--5---3---3--3---5---5--5--5--5--5--5--|

                        Guitar 2
                        e|-----------|
                        B|-----------|
                        G|-7bbbbbbb\-|
                        D|-----------|
                        A|-----------|
                        E|-----------|

e|-5---5--5---3---3--3--------------5---5--5-|
B|-5---5--5---3---3--3---7---7--7---5---5--5-|
G|-5---5--5---4---4--4---7---7--7---6---6--6-|
D|-7---7--7---5---5--5---7---7--7---7---7--7-|
A|-7---7--7---5---5--5---5---5--5---7---7--7-|
E|-5---5--5---3---3--3--------------5---5--5-|


e|-5---5--5---3---3--3---5---5--5--5--5--5--5--|
B|-5---5--5---3---3--3---5---5--5--5--5--5--5--|
G|-5---5--5---4---4--4---5---5--5--5--5--5--5--|
D|-7---7--7---5---5--5---7---7--7--7--7--7--7--|
A|-7---7--7---5---5--5---7---7--7--7--7--7--7--|
E|-5---5--5---3---3--3---5---5--5--5--5--5--5--|

Guitar 2
e|---------------------------------------------------|
B|---------------------------------------------------|
G|-----------------------------7h9p7\5---------------|
D|---------------------------------------------------|
A|--------7-----5--7--5-----------------5h7p5--------|
E|--5--8----------------5-8-5------------------8--5--|
 ...lost  and  out  of  ti-ime

Guitar 1
e|-5---5--5---3---3--3--------------5---5--5-|
B|-5---5--5---3---3--3---7---7--7---5---5--5-|
G|-5---5--5---4---4--4---7---7--7---6---6--6-|
D|-7---7--7---5---5--5---7---7--7---7---7--7-|
A|-7---7--7---5---5--5---5---5--5---7---7--7-|
E|-5---5--5---3---3--3--------------5---5--5-|

e|-5---5--5---3---3--3---5---5--5--5--5--5--5--|
B|-5---5--5---3---3--3---5---5--5--5--5--5--5--|
G|-5---5--5---4---4--4---5---5--5--5--5--5--5--|
D|-7---7--7---5---5--5---7---7--7--7--7--7--7--|
A|-7---7--7---5---5--5---7---7--7--7--7--7--7--|(x3)
E|-5---5--5---3---3--3---5---5--5--5--5--5--5--|

*-*-*-*-*-*-*-*-*-*-*-*-*-*-*-*-*-*-*-*-*-*-*-*
e|--5--5---------3--3---------------------5--5--------|
B|--5--5---------3--3---------7--7--------5--5--------|
G|--5--5---------4--4---------7--7--------5--5--------|
D|--7--7---------5--5---------7--7--------7--7--------|
A|--7--7---------5--5---------5--5--------7--7--------|
E|--5--5---------3--3---------------------5--5--------|

Guitar 1
e|--5--5---------3--3--------5--5----|
B|--5--5---------3--3--------5--5----|
G|--5--5---------3--3--------5--5----|
D|--7--7---------5--5--------7--7----|
A|--7--7---------5--5--------7--7----|
E|--5--5---------3--3--------5--5----|

Guitar 2
e|---------------------------------|------------------|
B|--5--5-----5--5-----5--5-----7b--|--5--5-----5--5---|
G|--7b-7b----7b-7b----7b-7b----7b--|--7b-7b----7b-7b--|
D|---------------------------------|------------------|
A|---------------------------------|------------------|
E|---------------------------------|------------------|
*-*-*-*-*-*-*-*-*-*-*-*-*-*-*-*-*-*-*-*-*-*-*-*

e|-5---5--5---3---3--3--------------5---5--5-|
B|-5---5--5---3---3--3---7---7--7---5---5--5-|
G|-5---5--5---4---4--4---7---7--7---6---6--6-|
D|-7---7--7---5---5--5---7---7--7---7---7--7-|
A|-7---7--7---5---5--5---5---5--5---7---7--7-|
E|-5---5--5---3---3--3--------------5---5--5-|
                                               (x2)
e|-5---5--5---3---3--3---5---5--5--5--5--5--5--|
B|-5---5--5---3---3--3---5---5--5--5--5--5--5--|
G|-5---5--5---4---4--4---5---5--5--5--5--5--5--|
D|-7---7--7---5---5--5---7---7--7--7--7--7--7--|
A|-7---7--7---5---5--5---7---7--7--7--7--7--7--|
E|-5---5--5---3---3--3---5---5--5--5--5--5--5--|

e|----------------------------------------------------------------------|
B|----------------------------------------------------------------------|
G|-14---14-12-----------------------------------------------------------|
D|------------14-12-14--14--14--14-12-----14---14-12--------------------|
A|------------------------------------15-------------15-12--12--12--12~-|
E|----------------------------------------------------------------------|

e|-----------------------------------|
B|-----------------------------------|
G|-----------------------12----14hb\-|
D|------------14-13-12------14-------|
A|-15-14-12--------------------------|
E|-----------------------------------|

e|---------------------------------------------------------------------------------|
B|---------------------------------------------------------------------------------|
G|-----------12---------12------12------12------12------12------12------12------12-|
D|-14-----14----14-12/14---12/14---12/14---12/14---12/14---12/14---12/14---12/14---|
A|----15---------------------------------------------------------------------------|
E|---------------------------------------------------------------------------------|

e|----------------------------------------------------------------------------------|
B|----------------------------------------------------------13----------------------|
G|-/12-14---/12-14---/12-14---/12-14----/12-14----/12-14--------14p12---------------|
D|-------14-------14-------14--------14--------14-------14------------14-12h14-14---|
A|----------------------------------------------------------------------------------|
E|----------------------------------------------------------------------------------|

e|------------------|
B|------------------|
G|------------------|
D|-14p12\10---------|
A|----------12--12~-|
E|------------------|

Guitar 1
e|--5--5---------3--3---------------------5--5--------|
B|--5--5---------3--3---------7--7--------5--5--------|
G|--5--5---------4--4---------7--7--------5--5--------|
D|--7--7---------5--5---------7--7--------7--7--------|
A|--7--7---------5--5---------5--5--------7--7--------|
E|--5--5---------3--3---------------------5--5--------|

e|--5--5---------3--3--------5--5----------5--5------|
B|--5--5---------3--3--------5--5----------5--5------|
G|--5--5---------3--3--------5--5----------5--5------|
D|--7--7---------5--5--------7--7----------7--7------|
A|--7--7---------5--5--------7--7----------7--7------|
E|--5--5---------3--3--------5--5----------5--5------|

Guitar 2
e|---------------------------------|-----------------------------------|
B|--5--5-----5--5-----5--5---7-7b--|--5--5-----5--5--------------------|
G|--7b-7b----7b-7b----7b-7b--7-7b--|--7b-7b----7b-7b--7bp5-----7bp5----|
D|---------------------------------|-----------------------7--------7--|
A|---------------------------------|-----------------------------------|
E|---------------------------------|-----------------------------------|

b - bend
~ - vibrato
/ - slide up
\ - slide down
h - hammer-on
p - pull-off

Tap to rate this tab
 
# A B C D E F G H I J K L M N O P Q R S T U V W X Y Z