Song name
# A B C D E F G H I J K L M N O P Q R S T U V W X Y Z

Black Keys - Little Black Submarines tab

                            Little Black Submarines

                                 By Black Keys
P-PULL OFF
H-HAMMER ON
/-SLIDE UP TO NOTE
\-SLIDE DOWN TO NOTE
~-VIRBRATO


Intro-Acoustic

   Am      Am
E-----0-------0---| 2x
B----1-1-----1-1--|
G---2---2---2--2--|
D--2-------2------|
A-0-------0-------|
E-----------------|
Verse 1 *Ive Also Posted The Chords At The Top With Are Played In The Backround.*

 Am    G    D  A  Am  G  A
E----------------------------------|
B-1-1-0-------------1-1-0----------|
G------2-0-2-----0-------2-0-2p0h2-|
D-----------2-2-2--2---------------|
A----------------------------------|
E----------------------------------|
Little Black Submarines Operator Please Put Me Back On The Line.
 Am   G   D   A  AM   G     A
E----------------------------------|
B-1-1-0-------------1-1-0----------|
G------2-0-2-----0-------2-0-2p0h2-|
D-----------2-2-2--2---------------|
A----------------------------------|
E----------------------------------|
Told my girl I'd be back Operator please
This is wrecking my mind
  Am  G   D  A  C  D  A            Am  G   D  A  C  D  A
E-0------------0-----------0--------0-0-------------0--------------0------|
B--3-1-3--1-3-1--3-1----0-1-3--1--------3-1-3--1-3-1---3-1------0-1--3-1--|
G-------------------2--2------2-2--2------------------------2--2------2-2-|
D-------------------------------------------------------------------------|
A-------------------------------------------------------------------------|
E-------------------------------------------------------------------------|
Oh, can it be The voices calling They get lost and out of time I should've seen it glow 
But everybody knows that a broken heart is blind.

 Am    G    D  A  Am  G  A
E-----------------------------------|
B-1-1-0-------------1-1-0-----------|
G------2-0-2-----0-------2-0-2p0h2--| 2x
D-----------2-2-2--2----------------|
A-----------------------------------|
E-----------------------------------|

Pick you up, let you down When I wanna go
To a place I can hide You know me I had plans But they just disappeared
To the back of my mind

 Am  G   D  A  C  D  A            Am  G   D  A  C  D  A
E-0------------0-----------0--------0-0-------------0--------------0------|
B--3-1-3--1-3-1--3-1----0-1-3--1--------3-1-3--1-3-1---3-1------0-1--3-1--|
G-------------------2--2------2-2--2------------------------2--2------2-2-|
D-------------------------------------------------------------------------|
A-------------------------------------------------------------------------|
E-------------------------------------------------------------------------|
Oh, can it be The voices calling They get lost and out of time I should've seen it glow 
But everybody knows that a broken heart is blind. That A broken heart is blind That A 
broken heart is blind....

Add Distortion U-Up Strum D-Down Strum

  D D D  D U D U  D D D  D U D U
E-0-0-0--3-3-3-3--2-2-2--0-0-0-0----0-0----------0-0----------0-0----------|
B-1-1-1--3-3-3-3--3-3-3--2-2-2-2----1-1----------1-1----------1-1----------|
G-2-2-2--0-0-0-0--2-2-2--2-2-2-2----2-2--7B9-7B9-2-2--7B9-7B9-2-2--7B9-7B9-|
D-2-2-2--0-0-0-0--0-0-0--2-2-2-2----2-2----------2-2----------2-2----------|
A-0-0-0--2-2-2-2--0-0-0--0-0-0-0----0-0----------0-0----------0-0----------|
E-0-0-0--3-3-3-3--0-0-0--0-0-0-0----0-0----------0-0----------0-0----------|

E-0-0--------0-0----------0-0----------------|
B-1-1--------1-1----------1-1----------------|
G-2-2--10B12-2-2--7B7-7B9-2-2--7P5-----------|
D-2-2--------2-2----------2-2------7~--7P5---|
A-0-0--------0-0----------0-0-------------7~-|
E-0-0--------0-0----------0-0----------------|


 Am    G    D  A  Am  G  A
E--------------------------------------------------|
B-1-1-0-------------1-1-0--------------------------|
G------2-0-2-----0-------2-0-2p0h2--0h2p0----------|
D-----------2-2-2--2--------------------2-0h2p0----|
A----------------------------------------------3-0-|
E--------------------------------------------------|
Treasure maps, falling trees
Operator please
Call me back when it's time
Stolen friends and disease
Operator please
Pass me back to my mind

 Am  G   D  A  C  D  A            Am  G   D  A  C  D  A
E-0------------0-----------0--------0-0-------------0--------------0------|
B--3-1-3--1-3-1--3-1----0-1-3--1--------3-1-3--1-3-1---3-1------0-1--3-1--|
G-------------------2--2------2-2--2------------------------2--2------2-2-|
D-------------------------------------------------------------------------|
A-------------------------------------------------------------------------|
E-------------------------------------------------------------------------|
Oh, can it be
The voices calling me
They get lost and out of time
I should've seen it go
But everybody knows
That a broken heart is blind
That a broken heart is blind
That a broken heart is blind

E-0-0-----------------------------------------|
B-1-1-----------------------------------------|
G-2-2-7B9-7B9--7B9-7B9--10B12--10B12-7B9--7B9-|
D-2-2-----------------------------------------|
A-0-0-----------------------------------------|
E-0-0-----------------------------------------|

*SOLO*
E----------------------------------------------------------------|
B--8B10--8B10-5--------------------------------------10---8B9~---|
G-----------------7B9--7B9-5--9-9-7-5----------9-8-7~--9---------|
D------------------------------------7-7-9-8-7~------------------|
A----------------------------------------------------------------|
E----------------------------------------------------------------|

E----5----5---5---5---5---5----5P0----5P0----5P0----5P0-8-8------------|
B---5----5---5---5---5---5-8B10---8B10---8B10---8B10----8-8-10\5-5/10~-|
G-7B9-7B9-7B9-7B9-7B9-7B9----------------------------------------------|
D----------------------------------------------------------------------|
A----------------------------------------------------------------------|
E----------------------------------------------------------------------|

E-0-0-----------------------------------------|
B-1-1-----------------------------------------|
G-2-2-7B9-7B9--7B9-7B9--10B12--10B12-7B9--7B9-|
D-2-2-----------------------------------------|
A-0-0-----------------------------------------|
E-0-0-----------------------------------------|
Tap to rate this tab
# A B C D E F G H I J K L M N O P Q R S T U V W X Y Z