Song name
# A B C D E F G H I J K L M N O P Q R S T U V W X Y Z

Black Keys - Money Maker tab

-------------------------------------------------------------------------------
                             Money Maker - Black Keys
-------------------------------------------------------------------------------
Tabbed by: Patrick Bolotin
Email:Pb0526@comcast.net

This is one of my favorite songs of all time. I went to a show and watched Dan's 
hands while he was performing. I think this tab is right. 

Tuning: Standard

Intro   
e ---------------------------------------------------------------------------|
B|---------------------------------------------------------------------------|
G|---------------5-5-5--3--3-3-----------------------------------------------|
D|---5--5--3--3--5-5-5--3--3-3-----------------------------------------------|x2
A|---5--5--3--3--3-3-3--1--1-1-----------------------------------------------|
E|---3--3--1--1--------------------------------------------------------------|  
You can do multiple beats, I'm just giving the base structure of what you need to do

End of intro
e|---------------------------------------------------------------------------|
B|---------------------------------------------------------------------------|
G|---------------------------------------------------------------------------|
D|--5--5--5--5--5-5-5-5-5-5-5-5----------------------------------------------|
A|--5--5--5--5--5-3-5-5-5-5-5-5----------------------------------------------|
E|--3--3--3--3--3-3-3-3-3-3-3-3----------------------------------------------|

Verse
e|---------------------------------------------------------------------------|
B|---------------------------------------------------------------------------|
G|---------------------------------------------------------------------------|
D|---------------------------------------------------------------------------|
A|--------x-1--3----------x-3--1---------------------------------------------|x As Many times Dan 
E|--1--3----------x-1--3-----------------------------------------------------|does it
                                    Ohhhh, she was milk and hunny..... 

Breakdown
e|---------------------------------------------------------------------------|
B|---------------------------------------------------------------------------|
G|--------------5-5-5--3--3-3------------------------------------------------|
D|--5--5--3--3--5-5-5--3--3-3------------------------------------------------|
A|--5--5--3--3--3-3-3--1--1-1------------------------------------------------|x As many times as 
E|--3--3--1--1---------------------------------------------------------------|he does it
  Hey now now she's a money maker...

Then go back to the Verse and back to the breakdown. I do not know the solo. Rate 
and comment any corrections.
************************************

| /   slide up
| \   slide down
| h   hammer-on
| p   pull-off
| ~   vibrato
| +   harmonic
| x   Mute note
| b   Bend
| pb  Pre-bend
| br  Bend release
| pbr Pre-bend release
| brb Bend release bend
Tap to rate this tab
 
# A B C D E F G H I J K L M N O P Q R S T U V W X Y Z