Song name
# A B C D E F G H I J K L M N O P Q R S T U V W X Y Z

Black Keys - Have Love Will Travel tab

Help us improve GuitareTab! Take a short survey!
i've only found the intro to this song so i tried
to figure out the rest...i'm sure its not perfect
but its a start.

------------------------------------------------|
------------------------------------------------|
------------------------------------------------|
-----5-7-7-5-7s9-7-5-7-5---------5-7-7-5-7s9~~--|
-7-7---------------------7-5-7-7----------------|
------------------------------------------------|

---------------------------------------------------|
---------------------------------------------------|
---------------------------------------------------|
-----------------------------------------------5-7-|
-----3-5-5-3-5s7-5-3-5-3---------3-5-5-3-5s7-7-----|
-5-5---------------------5-3-5-5-------------------|
(repeat as needed through the HAVE LOVE part then add this ending)
---------------------------------------------------|-------------------|
---------------------------------------------------|-------------------|
---------------------------------------------------|-------------------|
-----------------------------------------------5-7-|-------------------|
-----3-5-5-3-5s7-5-3-5-3---------3-5-5-3-5s7-7-----|-7-7-7-7-7-7-7-5~~-|
-5-5---------------------5-3-5-5-------------------|-------------------|
              (occasionally switch ending with this: E9?...........D9?
                                                   |------------------|
                                                   |-7-7-7-7-7-7-7-5--|
                                                   |-7-7-7-7-7-7-7-5--|
                                                   |-6-6-6-6-6-6-6-4--|
                                                   |-7-7-7-7-7-7-7-5--|
                                                   |------------------|
Then i think the verses go something like this:
  A7    D9    E9
------------------------------------------------   |
---2-----5----7---------------------------------   |
---0-----5----7---(7-5)*(?)---------------------   |
---2-----4----6----or---(?)---------------------   |
-0-----5-5--7-7---(7-5)*(?)---------------------   |
------------------------------------------------   |
*he hits a couple notes after the E9, i dont know what they are so but i play one of 
things in the ()'s.

Also dont know the solo, but he i think he hits some licks in the A blues scale for a few
measures then D maybe and back to A???????not sure.
Related for Have Love Will Travel tab