Song name
# A B C D E F G H I J K L M N O P Q R S T U V W X Y Z

Black Keys - Have Love Will Travel tab

--------------------------------------------------------------------------
		    Have Love Will Travel - The Black Keys
--------------------------------------------------------------------------
Tabbed by: T. Mirow

Tuning: Standard

This is my first submitted tab so I hope that it helps out a bit.
I used the program "Transcribe!" to slow down the song and figure out the
notes. A few of the slides that could be done with bends I made sure to tab
out for purists(if I am in fact accurate with my tabbing), but if you find 
it easier to bend, go ahead of course.  Criticism is, naturally, welcome.

e|--------------------------------------------------------------------|
B|--------------------------------------------------------------------|
G|-7b9-----7b9-7b9-7b9------5-5h7-5------------------5---5-7-7b9r7-5--|
D|----------------------------------5h7--5h7-5---5-7---7--------------|
A|---------------------------------------------7----------------------|
E|--------------------------------------------------------------------|

e|--------5-------5h7-5------------------10---------------------------|
B|------5---5h7-5-------8/10-8-5-8-10b12----12br10--------------------|
G|-7b9------------------------------------------------9\7-5-5h7-5-----|
D|----------------------------------------------------------------5h7-|
A|--------------------------------------------------------------------|
E|--------------------------------------------------------------------|

e|--------------------------------------------------------------------|
B|--------------------------------------------------------------------|
G|-----------------------------7/9-7-5-7-9\7-5---5--------5-6-7-7b9r7-|
D|-5h7-5h7-5h7-5h7-5h7-5h7-5h7-----------------7----5-6-7-------------|
A|--------------------------------------------------------------------|
E|--------------------------------------------------------------------|

e|---------------------------------8h10~--8---------------------------|
B|-------8---8h10-8h10-8h10-8h10~-------------------------------------|
G|-5-7/9---9----------------------------------------------------------|
D|----------------------------------------------5-5h7~--5h7-5---------|
A|------------------------------------------5h7---------------7-3-----|
E|--------------------------------------------------------------------|

Right into chorus riff.

************************************

| /   slide up
| \   slide down
| h   hammer-on
| p   pull-off
| ~   vibrato
| +   harmonic
| x   Mute note
| b   Bend
| pb  Pre-bend
| br  Bend release
| pbr Pre-bend release
| brb Bend release bend

************************************
Tap to rate this tab
 
# A B C D E F G H I J K L M N O P Q R S T U V W X Y Z