Song name
# A B C D E F G H I J K L M N O P Q R S T U V W X Y Z

Black Keys - Have Love Will Travel tab

Band: The Black Keys
Album: Thickfreakness
Song: Have Love Will Travel
Tuning: Standard      (eBGDAE)

Intro:
|------------------------------------------------|
|------------------------------------------------|
|------------------------------------------------|
|-----5-7-7-5-7s9-7-5-7-5---------5-7-7-5-7s9~~--|
|-7-7---------------------7-5-7-7----------------|
|------------------------------------------------|

Verse:
|---------------------------------------------------|
|---------------------------------------------------|
|---------------------------------------------------|
|-----------------------------------------------5-7-|
|-----3-5-5-3-5s7-5-3-5-3---------3-5-5-3-5s7-7-----|
|-5-5---------------------5-3-5-5-------------------|

|---------------------------------------------------|-------------------|
|---------------------------------------------------|-------------------|
|---------------------------------------------------|-------------------|
|-----------------------------------------------5-7-|-------------------|
|-----3-5-5-3-5s7-5-3-5-3---------3-5-5-3-5s7-7-----|-7-7-7-7-7-7-7-5~~-|
|-5-5---------------------5-3-5-5-------------------|-------------------|

|---------------------------------------------------|
|---------------------------------------------------|
|---------------------------------------------------|
|-----------------------------------------------5-7-|
|-----3-5-5-3-5s7-5-3-5-3---------3-5-5-3-5s7-7-----|
|-5-5---------------------5-3-5-5-------------------|

Chorus:
|------------------------------------------------|
|---2-----5----7---------------------------------|
|---0-----5----7---(7-5)*(?)---------------------|
|---2-----4----6----or---(?)---------------------|
|-0-----5-5--7-7---(7-5)*(?)---------------------| x4
|------------------------------------------------|  


Verse:
|---------------------------------------------------|
|---------------------------------------------------|
|---------------------------------------------------|
|-----------------------------------------------5-7-|
|-----3-5-5-3-5s7-5-3-5-3---------3-5-5-3-5s7-7-----|
|-5-5---------------------5-3-5-5-------------------|

|---------------------------------------------------|-------------------|
|---------------------------------------------------|-------------------|
|---------------------------------------------------|-------------------|
|-----------------------------------------------5-7-|-------------------|
|-----3-5-5-3-5s7-5-3-5-3---------3-5-5-3-5s7-7-----|-7-7-7-7-7-7-7-5~~-|
|-5-5---------------------5-3-5-5-------------------|-------------------|


Solo:
|--------------------------------------------------------------------|
|--------------------------------------------------------------------|
|-7b9-----7b9-7b9-7b9------5-5h7-5------------------5---5-7-7b9r7-5--|
|----------------------------------5h7--5h7-5---5-7---7--------------|
|---------------------------------------------7----------------------|
|--------------------------------------------------------------------|

|--------5-------5h7-5------------------10---------------------------|
|------5---5h7-5-------8/10-8-5-8-10b12----12br10--------------------|
|-7b9------------------------------------------------9\7-5-5h7-5-----|
|----------------------------------------------------------------5h7-|
|--------------------------------------------------------------------|
|--------------------------------------------------------------------|

|--------------------------------------------------------------------|
|--------------------------------------------------------------------|
|-----------------------------7/9-7-5-7-9\7-5---5--------5-6-7-7b9r7-|
|-5h7-5h7-5h7-5h7-5h7-5h7-5h7-----------------7----5-6-7-------------|
|--------------------------------------------------------------------|
|--------------------------------------------------------------------|

|---------------------------------8h10~--8---------------------------|
|-------8---8h10-8h10-8h10-8h10~-------------------------------------|
|-5-7/9---9----------------------------------------------------------|
|----------------------------------------------5-5h7~--5h7-5---------|
|------------------------------------------5h7---------------7-3-----|
|--------------------------------------------------------------------|


Verse:
|---------------------------------------------------|
|---------------------------------------------------|
|---------------------------------------------------|
|-----------------------------------------------5-7-|
|-----3-5-5-3-5s7-5-3-5-3---------3-5-5-3-5s7-7-----|
|-5-5---------------------5-3-5-5-------------------|

Chorus:
|------------------------------------------------|
|---2-----5----7---------------------------------|
|---0-----5----7---(7-5)*(?)---------------------|
|---2-----4----6----or---(?)---------------------| x4
|-0-----5-5--7-7---(7-5)*(?)---------------------|
|------------------------------------------------|  

Verse:
|---------------------------------------------------|
|---------------------------------------------------|
|---------------------------------------------------|
|-----------------------------------------------5-7-|
|-----3-5-5-3-5s7-5-3-5-3---------3-5-5-3-5s7-7-----|
|-5-5---------------------5-3-5-5-------------------|

|---------------------------------------------------|-------------------|
|---------------------------------------------------|-------------------|
|---------------------------------------------------|-------------------|
|-----------------------------------------------5-7-|-------------------|
|-----3-5-5-3-5s7-5-3-5-3---------3-5-5-3-5s7-7-----|-7-7-7-7-7-7-7-5~~-|
|-5-5---------------------5-3-5-5-------------------|-------------------|

|---------------------------------------------------|
|---------------------------------------------------|
|---------------------------------------------------|
|-----------------------------------------------5-7-|
|-----3-5-5-3-5s7-5-3-5-3---------3-5-5-3-5s7-7-----|
|-5-5---------------------5-3-5-5-------------------|

|---------------------------------------------------|-------------------|
|---------------------------------------------------|-------------------|
|---------------------------------------------------|-------------------|
|-----------------------------------------------5-7-|-------------------|
|-----3-5-5-3-5s7-5-3-5-3---------3-5-5-3-5s7-7-----|-7-7-7-7-7-7-7-5~~-|
|-5-5---------------------5-3-5-5-------------------|-------------------|
             
Tap to rate this tab
 
# A B C D E F G H I J K L M N O P Q R S T U V W X Y Z