Song name
# A B C D E F G H I J K L M N O P Q R S T U V W X Y Z

Black Keys - No Trust tab

                                  ~~~~~~~~~~~~~~~~~~~~~~~~~~~~~~~~~~~~~~~~
                                                  No Trust
                                               The Black Keys
                                               Thickfreakness
                                  ~~~~~~~~~~~~~~~~~~~~~~~~~~~~~~~~~~~~~~~~


Original Contribution by: Connor O.
Tuning: Standard
Effects: Echo/Delay and Fuzz


Comment with ideas/corrections.

Please rate my tab


Key:
where # represents a fret number

#h# - hammer
#p# - pull
/ \ - slides, up and down respectively.
#b# - bend from normal note up to achieve bended note.
#r# - release bend from bended note to normal note.
x - mute



Intro

  0:00

e|--x---x---x---x-----|
B|--x---x---x---x-----|
G|--x---x---x---x-----|
D|--x---x---3---3h5---|
A|--x---5-------------|
E|--3---x-------------|



Bridge:


0:13


e|--------------------|
B|--------------------|
G|--------------------|
D|----------3---5-----|
A|------5-------------|
E|--3-----------------|


  0:15

e|---------------------------------------|
B|-------------------3-3--5-5--3-3-------|
G|-------------------3-3--5-5--3-3-------|
D|----------3-3-5-5--3-3--5-5--3-3-------|
A|------5-5------------------------------|
E|--3-3-----------------------------1-1--|


  0:19

e|----------------------3-------3---------|
B|----------------------3-------3---------|
G|----------------3-5b7---3-5b7---3-5b7r5-|
D|----------3-3-5-------------------------|
A|------5-5-------------------------------|
E|--3-3-----------------------------------|


  0:24

e|---------------------------------------|
B|-------------------3-5-3-5-6-5-3-0-----|
G|-------------------3-5-3-5-6-5-3-0-----|
D|----------3-3-5-5--3-5-3-5-6-5-3-0-----|
A|------5-5------------------------------|
E|--3-3----------------------------------|


  0:28

e|---------------------------------------|
B|-------------------3-3--5-5--3-3-------|
G|-------------------3-3--5-5--3-3-------|
D|----------3-3-5-5--3-3--5-5--3-3-------|
A|------5-5------------------------------|
E|--3-3-----------------------------1-1--|



Verse 1:


  0:30
  she wanna get out of the car
  in the middle of the road
  and her screamin' and hollerin'
  is gettin' mighty old
e|---------------------------------------|
B|-------------------3-3--5-5--3-3-------|
G|-------------------3-3--5-5--3-3-------|
D|----------3-3-5-5--3-3--5-5--3-3-------| X4
A|------5-5------------------------------|
E|--3-3-----------------------------1-1--|


  0:48
  She check every paper when you step out the room
e|--------------------------x------------|
B|--------------------------x------------|
G|----5-5-5--5-3-5--5-3-5-5-x------------|
D|----5-5-5--5-3-5--5-3-5-5-x------------|
A|----3-3-3--3-1-3--3-1-3-3-x------------|
E|---------------------------------------|


  0:53

e|---------------------------------------|
B|-------------------3-3--5-5--3-3-------|
G|-------------------3-3--5-5--3-3-------|
D|----------3-3-5-5--3-3--5-5--3-3-------| X2
A|------5-5------------------------------|
E|--3-3-----------------------------1-1--|


  1:00
  Ain't got no trust in her mama
e|-------------------------------|
B|-------------------------------|
G|--5b7r5-3-5--3-----------------|
D|---------------5-5-3--5--3--5--|
A|----------------------5--3--5--|
E|----------------------3--1--3--|


  1:04
  Ain't go no trust in her daddy
e|-------------------------------|
B|-------------------------------|
G|--5b7r5-3-5--3---3-3-----------|
D|---------------5------5--3--5--|
A|----------------------5--3--5--|
E|----------------------3--1--3--|


  1:08
  Ain't got no trust in her sister
e|-------------------------------|
B|-------------------------------|
G|--5b7r5-3-5--3-----------------|
D|---------------5-5-3--5--3--5--|
A|----------------------5--3--5--|
E|----------------------3--1--3--|

 
  1:12                              1:16
  And she ain't got trust in you
e|------------------------------- ~ -x--|
B|------------------------------- ~ -x--|
G|--5b7r5-3-5--3---3------------- ~ -x--|
D|---------------5---5----------- ~ -x--|
A|------------------------------- ~ -x--|
E|------------------------------- ~ -x--|




Bridge:


  1:17

e|---------------------------------------|
B|-------------------3-3--5-5--3-3-------|
G|-------------------3-3--5-5--3-3-------|
D|----------3-3-5-5--3-3--5-5--3-3-------|
A|------5-5------------------------------|
E|--3-3-----------------------------1-1--|


  1:22

e|----------------------3---------------3-|
B|----------------------3---------------3-|
G|----------------3-5b7---3-5b7-7-5b7r5---|
D|----------3-3-5-------------------------|
A|------5-5-------------------------------|
E|--3-3-----------------------------------|


  1:26

e|---------------------------------------|
B|-------------------3-5-6-5-3-5-3-0-----|
G|-------------------3-5-6-5-3-5-3-0-----|
D|----------3-3-5-5--3-5-6-5-3-5-3-0-----|
A|------5-5------------------------------|
E|--3-3----------------------------------|


  1:30

e|---------------------------------------|
B|-------------------3-3--5-5--3-3-------|
G|-------------------3-3--5-5--3-3-------|
D|----------3-3-5-5--3-3--5-5--3-3-------|
A|------5-5------------------------------|
E|--3-3-----------------------------1-1--|



Verse 2 is just like Verse 1


1:33

She want a simple life
She needs a simple man
That don't drink or smoke darlin'
Play in a rock-n-roll band

1:49
ah but she want you to hold her at night when she's lonely and blue

2:02
ain't got no trust in her mama

2:06
ain't got no trust in her daddy

2:10
ain't got no trust in her sister

2:14 
and she ain't got trust in you



Bridge/Solo:


  2:18

e|---------------------------------------|
B|-------------------3-3--5-5--3-3-------|
G|-------------------3-3--5-5--3-3-------|
D|----------3-3-5-5--3-3--5-5--3-3-------|
A|------5-5------------------------------|
E|--3-3-----------------------------1-1--|


  2:22

e|-----------------------------------3---|
B|--------------------------4-5------3---|
G|----------------------3-4-----5b7------|
D|----------3-3-5-5-2h3------------------|
A|------5-5------------------------------|
E|--3-3----------------------------------|


  2:26

e|----------------------3-------3---------|
B|----------------------3-------3---------|
G|----------------3-5b7---3-5b7---3-5b7r5-|
D|----------3-3-5-------------------------|
A|------5-5-------------------------------|
E|--3-3-----------------------------------|


  2:30

e|-------------------5b6-5b6-5b6-5b6-----3-|
B|-------------------5b6-5b6-5b6-5b6-3-5-3-|
G|-----------------------------------------|
D|----------3-3-5-5------------------------|
A|------5-5--------------------------------|
E|--3-3------------------------------------|


  2:34

e|---------------------------------------|
B|-------------------6/8--8\6-6/8-8------|
G|-------------------5/7--7\5-5/7-7------|
D|----------3-3-5-5----------------------|
A|------5-5------------------------------|
E|--3-3----------------------------------|


  2:38

e|-------------------7b8-7b8-7b8-7b8-----3-|
B|-------------------7b8-7b8-7b8-7b8-3h5-3-|
G|-----------------------------------------|
D|----------3-3-5-5------------------------|
A|------5-5--------------------------------|
E|--3-3------------------------------------|


  2:42

e|-----------------------------------3---|
B|--------------------------4-5------3---|
G|----------------------3-4-----5b7------|
D|----------3-3-5-5-2h3------------------|
A|------5-5------------------------------|
E|--3-3----------------------------------|


  2:46

e|------------------3--------------------|
B|---------------------------------------|
G|----------------3-5b7------------------|
D|----------3-3-5------------------------|
A|------5-5------------------------------|
E|--3-3----------------------------------|



Verse 3 is just like Verses 1 & 2


2:50

Yeah she's a beautiful gal
When she wanna be
But if you told her so darlin'
She'd just disagree

3:06
Oh she hates your job, and what you want him to do?

3:18
ain't got no trust in her mama

3:22
ain't got no trust in her daddy

3:26
ain't got no trust in her sister

3:30
and she ain't got trust in you
Tap to rate this tab
# A B C D E F G H I J K L M N O P Q R S T U V W X Y Z