Song name
# A B C D E F G H I J K L M N O P Q R S T U V W X Y Z

Black Label Society - Parade Of The Dead tab

Black Label Society
"Parade of the Dead"
Tuning: D Standard (DGCFAD)

Intro/Verses ("Exterminate the laws of old")
  PM----|        PM----------|
|------------------------------|------------------------------|
|------------------------------|------------------------------|
|------------------------------|------------------------------|
|---------4-4------------------|---------4-4------------------|
|------------------------------|------------------------------|
|-0-2-2-2-----2--0-2-2-0-2-2-2-|-0-2-2-2-----2--0-2-2-0-2-2-2-|


                                    PM|
|------------------------------|----------------------|
|------------------------------|----------------------|
|------------------------------|-2---------4b4.5r=(4)-|
|---------4-4------------------|-2------2--4b4.5r=(4)-|
|------------------------------|-0------2--2------(2)-|
|-0-2-2-2-----2--0-2-2-0-2-2-2-|----0-0-0-------------|

Pre-Chorus ("OH! The denying of your death")
|------------------|------------------------|
|------------------|------------------------|
|-2-------------4--|------------2-----------|
|-2------4------4--|-----4------2-----4-----|
|-0------4--2-2-2--|-----4--0-0-0-----4-----|
|----2-2-2---------|-2-2-2--------2-2-2-2-2-|

			  P.H.
|------------------|-----------------------------|
|------------------|-----------------------------|
|--------9------7--|-----[7]---------------------|
|-2------9------7--|-----[7]---------------------|
|-2------7--5-5-5--|-5-5--5------2-5-4-2-4-2-----|
|-0--0-0-----------|---------14\-------------5-4-|

Chorus ("Parade of the dead")
              ~                              ~
|------------------------------|--------------------------------|
|------------------------------|------------------4b5r4---------|
|------------------------------|------------------4b5r4-2-------|
|---------4-2-4--2-4-2---------|---------4-2-4--2---------4-2---|
|----------------------4-3-2---|--------------------------------|
|-0-2-2-2--------------------5-|-0-2-2-2------------------------|


              ~                               ~~~
|------------------------------|-------------------------|
|------------------------------|-------------------------|
|------------------------------|----------------------2--|
|---------4-2-4--2-4-2---------|---------4-2-[4]------2--|
|----------------------4-3-2---|------------------0-0-0--|
|-0-2-2-2--------------------5-|-0-2-2-2-----------------|


              ~                             ~
|-----------------------------|-----------------------------|
|-----------------------------|-----------------4b5r4-------|
|-----------------------------|-----------------4b5r4-2-----|
|---------4-2-4-2-4-2---------|---------4-2-4-2---------4-2-|
|---------------------4-3-2---|-----------------------------|
|-0-2-2-2-------------------5-|-0-2-2-2---------------------|


              ~
|-----------------------------|
|-----------------------------|
|-----------------------------|
|---------4-2-4-2-4-2---------|
|---------------------4-3-2---|
|-0-2-2-2-------------------5-|

  |-3-| |-3-| |-3-| |-3-| |-3-| |-3-| |-3-| |-3-|
|-5p2p0-------------------------------------------|
|-------5p2p0-------5p2p0-------------------------|
|-------------4p2p0-------4p2p0-------4p2p0-------|
|-------------------------------4p2p0-------4p2p0-|
|-------------------------------------------------|
|-------------------------------------------------|

Half time break ("Revenge and retaliation")
|----------------|------------------|
|----------------|------------------|
|----------------|------------------|
|-------4--------|---4--------------|
|----------------|---------2b3r=2-0-|
|-0-2-2---2--0-2-|-2---0-0----------|


                       PM|
|----------------|--------------|
|----------------|--------------|
|----------------|--------------|
|-------4--------|---4-----2----|
|----------------|---------2----|
|-0-2-2---2--0-2-|-2---0-0-0----|

Solo begins (I'll transcribe the rest when I can play as fast as Zakk. Sorry.)
|--------------|-------------|-------------------|-------|
|-17-----------|-(17)--------|-------------------|-------|
|-16b18--------|-(18)--------|-15-16-15----------|-------|
|--------------|-------------|-------------14-16-|-14----|
|--------------|-------------|-------------------|-------|
|--------------|-------------|-------------------|-------|


|--------------|-------------|--------------------|
|-17-----------|-(17)--------|--------------------|
|-16b18--------|-(18)--------|-15-16-15-----------|
|--------------|-------------|--------------14-16-|
|--------------|-------------|--------------------|
|--------------|-------------|--------------------|


|------------------------------|
|-----14tr17--13tr16--12tr15---|
|------------------------------|
|-14---------------------------|
|------------------------------|
|------------------------------|

Outro riff
|---------5-------------------|-----------------------------|
|---------5---------5---------|-----------------------------|
|-------------------4---------|-5---------4-----------------|
|-----------------------------|-5---------4-4-2-------------|
|-----------------------------|-----------------4-2-4-2-----|
|-0-2-2-2---2-2-2-2---2-2-2-2-|---2-2-2-2---------------5-2-|


|---------5-------------------|-------------------------|
|---------5---------5---------|-------------------------|
|-------------------4---------|-5---------4-------------|
|-----------------------------|-5---------4---------2---|
|-----------------------------|---------------------2---|
|-0-2-2-2---2-2-2-2---2-2-2-2-|---2-2-2-2---2-2-2-2-0---|


|------------------|-----------------14----14------*|
|------------------|-----------------17b19-17b19---*|
|-2-------------4--|-------------------------------*|
|-2------2------4--|-------------------------------*|
|-0------2--2-2-2--|-4-5-4-2-4-2-------------------*|
|----0-0-0---------|-------------5-4---------------*|
Tap to rate this tab
 
# A B C D E F G H I J K L M N O P Q R S T U V W X Y Z