Song name
# A B C D E F G H I J K L M N O P Q R S T U V W X Y Z

Black Label Society - Shallow Grave chords

Highlighted       Show chord diagrams
Black Label Society - Shallow Grave

                  (open E sounds Good with the F Chord in this song)

  Am   F   Dm   C
E|-0---0----1---0----------------------------|
B|-1---1----3---1----------------------------|
G|-2---2----2---0----------------------------|
D|-2---3----0---2----------------------------|
A|-0------------3----------------------------|
E|-------------------------------------------|



    Am               F
The fall within this hole
  Dm                   C
My eyes are blind yet I see
Am           F
Lifeless and dark
   Dm              C
No need to feel or be

            Am           F
Mourned the passing of myself
Dm            C
      I saw today
Am              F
All that I once held
   Dm            C
I watch it fall away

Dm      F
Nothing left to say
C             Dm
The broken pieces
     F
That fill this shallow grave


Am       F
(quick vocal Break)


Dm               C
Buried and left alone
  Am     F    Dm            C
I find myself empty and withdrawn

            Am           F
Mourned the passing of myself
Dm            C
      I saw today
Am              F
All that I once held
  Dm             C
I watch it fall away

Dm      F
Nothing left to say
C             Dm
The broken pieces
     F
That fill this shallow grave

Am                          F
The walls cave and the end begins
      Dm                 C
As it all comes crashing down, yeah
Am                     F
     I hear a voice, I know too well
   Dm              C        Am
It comes to me and pulls me down
   C        Am
It pulls me down


Violin Solo (Vibrato Every sustained note)
E|----------------------------------------------------------------------------------|
B|----------------------------------------------------------------------------------|
G|----5--10-9---14--12--10--9\7--10--9--16/17\16--14--12/14--10/12--9--7\5--5/7--5--|
D|/7--------------------------------------------------------------------------------|
A|----------------------------------------------------------------------------------|
E|----------------------------------------------------------------------------------|

Am              F
All that I once held
  Dm            C
I watch it fall away

Dm      F
Nothing left to say
C             Dm
The broken pieces
     F
That fill this shallow grave
C                Dm           F
I mourned the passing of myself I saw today
C             Dm
   The broken pieces
     F
That fill this shallow grave




This is the riff the piano makes,
E|--------------------------------------------|
B|--------------------------------------------|
G|--------------------------------------------|
D|------9-10-9-7-5-7---2-3-2------------------|
A|-----------------------------------5-3-3----|
E|--------------------------------------------|
Tap to rate this tab
# A B C D E F G H I J K L M N O P Q R S T U V W X Y Z