Song name
# A B C D E F G H I J K L M N O P Q R S T U V W X Y Z

Black Label Society - Death March tab

Help us improve GuitareTab! Take a short survey!
Black Label Society-"Deaht March"

Ok so this tab is a little sketchy, but it has
the basic drift of the song. I couldn't
find any (good) tabs for this song so I took a 
shot at it. I know the first part is a
little off, and its only tabbed for one guitar,
the 2nd guitar is bending and doing a
bunch of wa wa shit. For now I got the intro down,
maybe I'll come back to this tab and
fix it up. Enjoy!


X = mute
/ = slide
p = pull off
~ = let ring


|------------------------------|
|------------------------------|
|------------------------------|
|-3p-3p-3X--4-/5-3p-3p-3X--4~--| (2x)
|-3p-3p-3X--4-/5-3p-3p-3X--4~--|
|-1--1--1X--------1--1-1X------|


|--------------------------------------|
|--------------------------------------|
|--------------------------------------|
|---------------4-/5---------------4~--| (3x)
|-3-------3-3X--4-/5-3-------3-3X--4~--|
|-1-1-1-1-1-1X-------1-1-1-1-1-1X------|


|--------------------------------------|
|--------------------------------------|
|--------------------------------------|
|---------------4-/5-------------------|
|-3-------3-3X--4-/5-3-------3-3----3~-|
|-1-1-1-1-1-1X-------1-1-1-1-1-1-1p3---|


Thats basicly how the song is until the chorus and shit 
where it brakes down and then theres a solo.

Tabbed By William Ellinwood aka 'Villiam'
E-Mail - savagemaggot666hotmail.com
Related for Death March tab