Song name
# A B C D E F G H I J K L M N O P Q R S T U V W X Y Z

Black Stone Cherry - Peace Is Free tab

-------------------------------------------------------------------------------
			     Peace Is Free - Black Stone Cherry
-------------------------------------------------------------------------------
Tabbed by:brokenunder
Email:tears--dont--fall@hotmail.co.uk

Tuning: D Standard (DGCFAd)

big thanks to Kreuger for the intro and the chords for the chorus
also bear in mind the leads is near impossible to hear in this cuz its so quiet. 

Intro
d|---------------------------------------------------------------------------|
A|---------------------------------------------------------------------------|
F|-------------------------------7-7-7-7-------------------------------------|
C|--5-5-5-5-7-7h9p7-5----5-5-5-5---------------------------------------------|
G|---------------------------------------------------------------------------|
D|-0-0-0-0-0-0----------0-0-0-0-0-0-0-0--------------------------------------|

d|-0~-------0~----------0~-------2~------------------------------------------|
A|-0~-------1~----------3~-------3~------------------------------------------|
F|-0~-------0~----------0~-------2~------------------------------------------|
C|-2~-------2~----------0~-------0~------------------------------------------|
G|-2~-------3~----------2~---------------------------------------------------|
D|-0~-------------------3~---------------------------------------------------|

Verse

   Em             C
Everybody feels blue sometimes 

          G           
You gotta keep your own head on 

    D
and keep on trying 

  Em                        C
And if you feel the urge to raise your hand 

                G              D
you can start a revolution or start a band 

           Em                 C
You better sing your song and sing it loud! 

        G                       D
But you better not here and you better do now! 

   Em                                 C
Cause this is what you'll like that and how we live 

G                         D
There's some people cause that is what my song says ! 

Chorus
 
Don't you bring your sadness down on me 
When peace is free! 
There's a sun up ahead brother 
waiting on me, Can't you see ?

d|---------------------------------------------------------------------------|
A|---------------------------------------------------------------------------|
F|------5555------7777-------5555------7777----------------------------------|
C|-2222-5555-5555-7777--2222-5555-5555-7777----------------------------------|
G|-2222-3333-5555-5555--2222-3333-5555-5555----------------------------------|
D|-0000------3333-------0000------3333---------------------------------------|
  
  or

d|-0000-0000-0000-2222-------------------------------------------------------|
A|-0000-1111-3333-3333-------------------------------------------------------|
F|-0000-0000-0000-2222-------------------------------------------------------|
C|-2222-2222-0000-0000-------------------------------------------------------|
G|-2222-3333-2222------------------------------------------------------------|
D|-0000------3333------------------------------------------------------------|

Intro with the below played over it

d|---------------------------------------------------------------------------|
A|---------------------------------------------------------------------------|
F|-/9-7---------------------------------7-9p7-7------------------------------|
C|-----pb9r7\5-5-7-5---------5-2-0--5-7-----9--------------------------------|
G|------------7--------------------------------------------------------------|
D|---------------------------------------------------------------------------|

Verse

Em                   C
Well I know times can get a little though 

        G                       D
You gotta lean on me brother you can't give up 

  Em                            C
Forget about your problems and forget about your pain 

G                        D
Raise up our glasses and forget about our hate


Chorus


Bridge

d|-0000-2222-00000000-0000000000000000-0000-2222-00000000-222222222----------|
A|-1111-3333-11111111-3333333333333333-1111-3333-11111111-333333333----------|
F|-2222-4444-00000000-0000000000000000-2222-4444-00000000-222222222----------|
C|-2222-4444-22222222-0000000000000000-2222-4444-22222222-000000000----------|
G|-0000-2222-33333333-2222222222222222-0000-2222-33333333--------------------|
D|--------------------3333333333333333---------------------------------------|

Intro with tune below

d|---------------------------------------------------------------------------|
A|-8p7p5-5------7---------------------------3h5p3-0h3------------------------|
F|------7-7--7-9---------------------0h2-2h4---------------------------------|
C|---------------7-5----------0h2p0-0----------------------------------------|
G|-----------------------0h3h5-----2-----------------------------------------|
D|---------------------------------------------------------------------------|
                        ^ not to sure on this bit but this is roughly it

Chorus- end on Em


| /  slide up
| \  slide down
| h  hammer-on
| p  pull-off
| ~  vibrato
| +  harmonic
| x  Mute note
===============================================================================
Tap to rate this tab
# A B C D E F G H I J K L M N O P Q R S T U V W X Y Z