Song name
# A B C D E F G H I J K L M N O P Q R S T U V W X Y Z

Black Stone Cherry - You tab

The other tabs on here for this song 
(especially for the intro) are 
completely inaccurate and I have no 
idea how one got 5 stars; people's 
ears must be terrible.

Anyway, I'm 99% sure this is how
Black Stone Cherry play this because 
I've seen then play it live.



Tuning: D Tuning DGCFAD

Chords:
C - x32010
Am/B - x20010
Am - x02210
F - x33210 (NOT THE F BARRE!)
G - 320033


Intro

    C         Am/B       Am          F
D|-------------------------------0----------------------|
A|------1---------1h3p1------1h3-------------1----------|
F|--------0------------------------------0h2---0---0----|
C|----2---------0----------2---------2h3---------3---0h2|
G|--3---------2----------0------------------------------|
D|------------------------------------------------------|



    C         Am/B       Am          F
D|-------------------------------0--------------------|
A|------1---------1h3p1------1h3-------------1--------|
F|--------0------------------------------0h2---0---0--|
C|----2---------0----------2---------2h3---------3----|
G|--3---------2----------0----------------------------|
D|----------------------------------------------------|



Verse

    F          Am                F            Am          G
D|--0----0--0----0----0--0----0----0----0--0----0----0--0---3--3--3|
A|--1----1--1----1----1--0h1--1----1----1--1----1----1--1---3--3--3|
F|--0h2--2--0----0h2--2--2----2----0h2--2--0----0h2--2--2---0--0--0|
C|--3-------3----2-------2----2----3-------3----2----2--2---0--0--0|
G|--3-------3----0-------0----0----3-------3----0----0--2---2--2--2|
D|----------------------------------------------------------3--3--3|

  F            Am          G          F
D|0----0--0----0----0--0---3--3--3-------------------------------------|
A|1----1--1----1----1--1---3--3--3-------------------------------------|
F|0h2--2--0----0h2--2--2---0--0--0---(PM)------------------------------|
C|3-------3----2----2--2---0--0--0----3-3-3-3-3-3-3-3-3/5-5-5-5-5-5-5-5|
G|3-------3----0----0--2---2--2--2----3-3-3-3-3-3-3-3-3/5-5-5-5-5-5-5-5|
D|-------------------------3--3--3----1-1-1-1-1-1-1-1-1/3-3-3-3-3-3-3-3|



Chorus
    F       C       G
D|----------------------------------|
A|----------------------------------|
F|----------5-5-5-5-----------------|  x2 then...
C|--3-3-3-3-5-5-5-5-5-5-5-5-5-5-5-5-|
G|--3-3-3-3-3-3-3-3-5-5-5-5-5-5-5-5-|
D|--1-1-1-1---------3-3-3-3-3-3-3-3-|

    F       C       Em      Am  G  F                G
D|-----------------------------------------------------|
A|-----------------------------------------------------|
F|----------5-5-5-5---------2-2------------------------|
C|--3-3-3-3-5-5-5-5-2-2-2-2-2-2-5-5-3-3-3-3-3-3-3-3/5-5|
G|--3-3-3-3-3-3-3-3-2-2-2-2-0-0-5-5-3-3-3-3-3-3-3-3/5-5|
D|--1-1-1-1---------0-0-0-0-----3-3-1-1-1-1-1-1-1-1/3-3|



Verse Intro

    C         Am/B       Am          F
D|-------------------------------0----------------------|
A|------1---------1h3p1------1h3-------------1----------|
F|--------0------------------------------0h2---0---0----|
C|----2---------0----------2---------2h3---------3---0h2|
G|--3---------2----------0------------------------------|
D|------------------------------------------------------|



    C         Am/B       Am          F
D|-------------------------------0--------------------|
A|------1---------1h3p1------1h3-------------1--------|
F|--------0------------------------------0h2---0---0--|
C|----2---------0----------2---------2h3---------3----|
G|--3---------2----------0----------------------------|
D|----------------------------------------------------|



Verse

    F          Am                F            Am          G
D|--0----0--0----0----0--0----0----0----0--0----0----0--0---3--3--3|
A|--1----1--1----1----1--0h1--1----1----1--1----1----1--1---3--3--3|
F|--0h2--2--0----0h2--2--2----2----0h2--2--0----0h2--2--2---0--0--0|
C|--3-------3----2-------2----2----3-------3----2----2--2---0--0--0|
G|--3-------3----0-------0----0----3-------3----0----0--2---2--2--2|
D|----------------------------------------------------------3--3--3|

  F            Am          G          F
D|0----0--0----0----0--0---3--3--3-------------------------------------|
A|1----1--1----1----1--1---3--3--3-------------------------------------|
F|0h2--2--0----0h2--2--2---0--0--0---(PM)------------------------------|
C|3-------3----2----2--2---0--0--0----3-3-3-3-3-3-3-3-3/5-5-5-5-5-5-5-5|
G|3-------3----0----0--2---2--2--2----3-3-3-3-3-3-3-3-3/5-5-5-5-5-5-5-5|
D|-------------------------3--3--3----1-1-1-1-1-1-1-1-1/3-3-3-3-3-3-3-3|



Chorus
    F       C       G
D|----------------------------------|
A|----------------------------------|
F|----------5-5-5-5-----------------|  x2 then...
C|--3-3-3-3-5-5-5-5-5-5-5-5-5-5-5-5-|
G|--3-3-3-3-3-3-3-3-5-5-5-5-5-5-5-5-|
D|--1-1-1-1---------3-3-3-3-3-3-3-3-|

    F       C       Em      Am  G  F                G
D|-----------------------------------------------------------------|
A|-----------------------------------------------------------------|
F|----------5-5-5-5---------2-2------------------------------------|
C|--3-3-3-3-5-5-5-5-2-2-2-2-2-2-5-5-3-3-3-3-3-3-3-3/5-5-5-5-5-5-5-5|
G|--3-3-3-3-3-3-3-3-2-2-2-2-0-0-5-5-3-3-3-3-3-3-3-3/5-5-5-5-5-5-5-5|
D|--1-1-1-1---------0-0-0-0-----3-3-1-1-1-1-1-1-1-1/3-3-3-3-3-3-3-3|


Bridge

    C         Am/B
D|------------------------------------------------------|
A|------1---------1h3p1---------------------------------|
F|--------0-------------2-2-2-2-------------------------|
C|----2---------0-------2-2-2-2-5-5-5-5-3-3-3-3-3-3-3-3-|
G|--3---------2---------0-0-0-0-5-5-5-5-3-3-3-3-3-3-3-3-|
D|------------------------------3-3-3-3-1-1-1-1-1-1-1-1-|

    Am      G       F                Am      G       F  
D|-------------------------------------------------------------------|
A|-------------------------------------------------------------------|
F|--2-2-2-2--------------------------2-2-2-2-------------------------|
C|--2-2-2-2-5-5-5-5-3-3-3-3-3-3-3-3--2-2-2-2-5-5-5-5-3-3-3-3-3-3-3-3-|
G|--0-0-0-0-5-5-5-5-3-3-3-3-3-3-3-3--0-0-0-0-5-5-5-5-3-3-3-3-3-3-3-3-|
D|----------3-3-3-3-1-1-1-1-1-1-1-1----------3-3-3-3-1-1-1-1-1-1-1-1-|

    Dm              F
D|----------------------------------|
A|----------------------------------|
F|--7-7-7-7-7-7-7-7-----------------|
C|--7-7-7-7-7-7-7-7-3-3-3-3-3-3-3-3-|
G|--5-5-5-5-5-5-5-5-3-3-3-3-3-3-3-3-|
D|------------------1-1-1-1-1-1-1-1-|


Solo

   C         B/Am       Am          F
D|-------------------------------0----------------------|
A|------1---------1h3p1------1h3-------------1----------|
F|--------0------------------------------0h2---0---0----|  x2
C|----2---------0----------2---------2h3---------3---0h2| 
G|--3---------2----------0------------------------------|
D|------------------------------------------------------|


    C         B/Am       Am          F
D|-------------------------------0--------------------|
A|------1---------1h3p1------1h3-------------1--------|
F|--------0------------------------------0h2---0---0--|
C|----2---------0----------2---------2h3---------3----|
G|--3---------2----------0----------------------------|
D|----------------------------------------------------|

    F               G
D|----------------------------------|
A|----------------------------------|
F|----------------------------------|
C|--3-3-3-3-3-3-3-3-5-5-5-5-5-5-5-5-|
G|--3-3-3-3-3-3-3-3-5-5-5-5-5-5-5-5-|
D|--1-1-1-1-1-1-1-1-3-3-3-3-3-3-3-3-|



Last Chours

    F       C       G
D|----------------------------------|
A|----------------------------------|
F|----------5-5-5-5-----------------|  x2 then...
C|--3-3-3-3-5-5-5-5-5-5-5-5-5-5-5-5-|
G|--3-3-3-3-3-3-3-3-5-5-5-5-5-5-5-5-|
D|--1-1-1-1---------3-3-3-3-3-3-3-3-|

    F       C       Em      Am  G  F                G
D|-----------------------------------------------------------------|
A|-----------------------------------------------------------------|
F|----------5-5-5-5---------2-2------------------------------------|
C|--3-3-3-3-5-5-5-5-2-2-2-2-2-2-5-5-3-3-3-3-3-3-3-3/5-5-5-5-5-5-5-5|
G|--3-3-3-3-3-3-3-3-2-2-2-2-0-0-5-5-3-3-3-3-3-3-3-3/5-5-5-5-5-5-5-5|
D|--1-1-1-1---------0-0-0-0-----3-3-1-1-1-1-1-1-1-1/3-3-3-3-3-3-3-3|


    F       C       G
D|----------------------------------|
A|----------------------------------|
F|----------5-5-5-5-----------------|  x2 then...
C|--3-3-3-3-5-5-5-5-5-5-5-5-5-5-5-5-|
G|--3-3-3-3-3-3-3-3-5-5-5-5-5-5-5-5-|
D|--1-1-1-1---------3-3-3-3-3-3-3-3-|

    F       C       Em      Am  G  F                G
D|-----------------------------------------------------------------|
A|-----------------------------------------------------------------|
F|----------5-5-5-5---------2-2------------------------------------|
C|--3-3-3-3-5-5-5-5-2-2-2-2-2-2-5-5-3-3-3-3-3-3-3-3/5-5-|
G|--3-3-3-3-3-3-3-3-2-2-2-2-0-0-5-5-3-3-3-3-3-3-3-3/5-5-|
D|--1-1-1-1---------0-0-0-0-----3-3-1-1-1-1-1-1-1-1/3-3-|


Outro

    C         Am/B       Am          F
D|-------------------------------0----------------------|
A|------1---------1h3p1------1h3-------------1----------|
F|--------0------------------------------0h2---0---0----|
C|----2---------0----------2---------2h3---------3---0h2|
G|--3---------2----------0------------------------------|
D|------------------------------------------------------|



    C         Am/B       Am          F                 C
D|-------------------------------0---------------------0|
A|------1---------1h3p1------1h3-------------1---------1|
F|--------0------------------------------0h2---0---0---0|
C|----2---------0----------2---------2h3---------3-----2|
G|--3---------2----------0-----------------------------3|
D|------------------------------------------------------|



This is just the rhythm guitar. If you want the solo,
look at the tab for the solo, it's rated 5 stars and is
accurate :)
Tap to rate this tab
# A B C D E F G H I J K L M N O P Q R S T U V W X Y Z