Guitaretab - guitar tabs
Song name
# A B C D E F G H I J K L M N O P Q R S T U V W X Y Z

Black Veil Brides - Knives And Pens Acoustic tab

BLACK VEIL BRIDES KNIVES AND PENS ACOUSTIC

|-------------------------------------------------------------------------|
|-------------------------------------------------------------------------|
|-------------------------------------------------------------------------|
|-------------------------------------------------------------------------|
|--7---10---7---7---10---7---7---10---7---7---10---7---10---12---10-------|
|0---0----0---0---0----0---0---0----0---0---0----0---0----0----0----------|

|-------------------------------------------------------------------------|
|-------------------------------------------------------------------------|
|--------------------------------------10-9-7-5---------------------------|
|10-9-7-9-9/10\9-7-5---8---------------10-9-7-5---------------------------|
|10-9-7-9-9/10\9-7-5-------8---10/12--------------10----12----10----------|
|--------------------8---8---8-------10---------0----0-----0--------------|

|-------------------------------------------------------------------------|
|-------------------------------------------------------------------------|
|10-9-7-9-9/10\9-7-5--------------------15-14-12-10-9---------------------|
|10-9-7-9-9/10\9-7-5---8----------------15-14-12-10-9---------------------|
|--------------------------8----10/12--------------------10---12---10-----|
|--------------------8---8----8-------10---------------0----0----0----0---|
[ Tab from: http://www.guitaretab.com/b/black-veil-brides/256564.html ]
|-------------------------------------------------------------------------|
|-------------------------------------------------------------------------|
|--------------------------------------10-9-7-5---------------------------|
|10-9-7-9-9/10\9-7-5---8---------------10-9-7-5---------------------------|
|10-9-7-9-9/10\9-7-5-------8---10/12--------------10----12----10----------|
|--------------------8---8---8-------10---------0----0-----0--------------|

|-------------------------------------------------------------------------|
|-------------------------------------------------------------------------|
|10-9-7-9-9/10\9-7-5--------------------15-14-12-10-9---------------------|
|10-9-7-9-9/10\9-7-5---8----------------15-14-12-10-9---------------------|
|--------------------------8----10/12--------------------10---12---10-----|
|--------------------8---8----8-------10---------------0----0----0----0---|

|-------------------------------------------------------------------------|
|-------------------------------------------------------------------------|
|--------------------------------------10-9-7-5---------------------------|
|10-9-7-9-9/10\9-7-5---8---------------10-9-7-5---------------------------|
|10-9-7-9-9/10\9-7-5-------8---10/12--------------10----12----10----------|
|--------------------8---8---8-------10---------0----0-----0--------------|

|-------------------------------------------------------------------------|
|-------------------------------------------------------------------------|
|10-9-7-9-9/10\9-7-5------------------------------------------------------|
|10-9-7-9-9/10\9-7-5---8--------------------------------------------------|
|--------------------------8----10/12----12/13-12-10-12-------------------|
|--------------------8---8----8-------10----------------------------------|

---------------------------------------------------------------------------
/ = slide up
\ = slide down
Related for Knives And Pens Acoustic tab
Knives And Pens Acoustic chords by Black Veil Brides