Song name
# A B C D E F G H I J K L M N O P Q R S T U V W X Y Z

Blink 182 - Hold On tab

Hold On - Blink 182

tabber: paul westerink
mail: paul11ajax@hotmail.com

tuning: standard

legenda
| ~ let it ring
| x muted/dead note
| . palm mute

I hear the phone it rings so violently
Can't leave my room, can't breathe since she left me
I will admit I hate those things I said
Girls will always cry, guys will never admit they did

intro
|--------------------------------------|
|--------------------------------------|
|--5~--------5-5--------5~--------5-5--|
|--5~--------5-5--------5~--------5-5--|
|--3~--------3-3--------3~--------3-3--|
|--------------------------------------|



Hold on, hold on, hold on, hold on

prechorus (strum fast)
|---------------------------------------------------------|
|---------------------------------------------------------|
|--55555555555555555555555555555555555555555555555555555--|
|--xxxxxxxxxxxxxxxxxxxxxxxxxxxxxxxxxxxxxxxxxxxxxxxxxxxxx--|
|--33333333333333333333333333333333333333333333333333333--|
|---------------------------------------------------------|



Don't tell me that it's over,
I'm not used to this temptation
And when you come back running,
There's no use for explanation
I think these things are too hopeful, even with my expert knowledge
Most girls most do mean trouble, because they are rarely honest

chorus
|-------------------------------------|
|-------------------------------------|
|--5555555555555555-------------------|
|--5555555555555555-55555555-33333333-|
|--3333333333333333-55555555-33333333-|
|-------------------33333333-11111111-|x4
   


riff
|--------------------------------------------------------------|
|--------------------------------------------------------------|
|--------------------------------------------------------------|
|-----2-0-2----2----2-0-2----2----2-0-2----2----2-0-2----2-----|
|--3--------3----3--------3----3--------3----3--------3----3~--|
|--------------------------------------------------------------|



What's with the jokes, all the routines they play
Screw with my head, never cave till they get their way
Guys like to run, chicks like to yell you see
Guys hate to fight, girls think its therapy


verse
|--------------------------------------|
|--------------------------------------|
|--5-55555555555555--------------------|
|--5-55555555555555-5-555555-3-333333--|
|--3-33333333333333-5-555555-3-333333--|
|-------------------3-333333-1-111111--|x4
pm   ..............   ......   ......

Hold on, hold on, hold on, hold on

prechorus (strum fast)
|-------------------------------------------------|
|-------------------------------------------------|
|--555555555555555555555555555555555555555555555--|
|--xxxxxxxxxxxxxxxxxxxxxxxxxxxxxxxxxxxxxxxxxxxxx--|
|--333333333333333333333333333333333333333333333--|
|-------------------------------------------------|



Don't tell me that it's over,
I'm not used to this temptation
And when you come back running,
There's no use for explanation
I think these things are too hopeful, even with my expert knowledge
Most girls most do mean trouble, because they are rarely honest

chorus
|-------------------------------------|
|-------------------------------------|
|--5555555555555555-------------------|
|--5555555555555555-55555555-33333333-|
|--3333333333333333-55555555-33333333-|
|-------------------33333333-11111111-|x4


riff
|--------------------------------------------------------------|
|--------------------------------------------------------------|
|--------------------------------------------------------------|
|-----2-0-2----2----2-0-2----2----2-0-2----2----2-0-2----2-----|
|--3--------3----3--------3----3--------3----3--------3----3~--|
|--------------------------------------------------------------|



Hold on, hold on, hold on, hold on

bridge
|-----------------------------|
|-----------------------------|
|--5555-55-5555---------------|
|--5555-55-5555-5555-77-3333--|
|--3333-33-3333-5555-77-3333--|
|---------------3333-55-1111--|x3
pm .... .. .... .... .. ....
|-----------------------------|
|-----------------------------|
|--5555-55-5555---------------|
|--5555-55-5555-5555-33-3333--|
|--3333-33-3333-5555-33-3333--|
|---------------3333-11-1111--|
pm .... .. .... .... .. ....



Don't tell me that it's over,
I'm not used to this temptation
And when you come back running,
There's no use for explanation
I think these things are too hopeful, even with my expert knowledge
Most girls most do mean trouble, because they are rarely honest

chorus
|-------------------------------------|
|-------------------------------------|
|--5555555555555555-------------------|
|--5555555555555555-55555555-33333333-|
|--3333333333333333-55555555-33333333-|
|-------------------33333333-11111111-|x4



Don't tell me that it's over,
I'm not used to this temptation
And when you come back running,
There's no use for explanation
I think these things are too hopeful, even with my expert knowledge
Most girls most do mean trouble, because they are rarely honest

outro
|-------------------------------------|
|-------------------------------------|
|--5555555555555555-------------------|
|--5555555555555555-55555555-33333333-|
|--3333333333333333-55555555-33333333-|
|-------------------33333333-11111111-|x4



Don't tell me that it's over, I'm not used to this temptation

end with
|-------|
|-------|
|--5~---|
|--5~---|
|--3~---|
|-------|
Tap to rate this tab
# A B C D E F G H I J K L M N O P Q R S T U V W X Y Z