Song name
# A B C D E F G H I J K L M N O P Q R S T U V W X Y Z

Blink 182 - Adams Song tab

this is a really simple song to learn

intro
--------------------------------------------
--------------------------------------------
-------------------------------------------- x2
----2----2----2----2----3----3-----3----3---
---0-3--0-3----3----3----2----2-----2----2--
-------------3----3----1----1----0-----1----

verse (pm)
--------------------------------------------
--------------------------------------------
---55555555----------22222222--------------- x?
---55555555-33333333-22222222-33333333------ 
---33333333-33333333-00000000-33333333------
------------11111111----------11111111------

refrain
--------------------------------------------
--------------------------------------------
---55555555-77777777-22222222--------------- x4
---55555555-77777777-22222222-33333333------
---33333333-55555555-00000000-33333333------
------------------------------11111111------

intro to second verse
-------------------------
-------------------------
----0----0----2----2-----from this go into the intro and then play the 
-----3----3--0-3--0-3----                  verse
---3----3----------------
-------------------------


enjoy!
Tap to rate this tab
# A B C D E F G H I J K L M N O P Q R S T U V W X Y Z