Song name
# A B C D E F G H I J K L M N O P Q R S T U V W X Y Z

Blink 182 - Up All Night tab

Help us improve GuitareTab! Take a short survey!
 This is "Up ALl Night", the new amazing song of Blink 182 !

Intro
e|-----------------------------|
B|-----------------------------|
G|--------9--------------------|
D|--7-6-2-9--7-6--8-9--8-7-----|
A|--7-6-2-7--7-6--8-9--8-7-----|
E|--5-4-0----5-4--6-7--6-5-----|

Verse
e|-----------------------------|
B|-----------------------------|
G|-----------------------------|
D|-7---------------------------|
A|-----------------------------|
E|-5---------------------------|

Chorus

e|-----------------------------|
B|-----------------------------|
G|----------9-------7----------|
D|-7--------9-(x8)--7-(x8)-----|
A|-7-(x16)--7-------5----------|
E|-5---------------------------|


Thank You and Blink 182 forever ! :)

   
Related for Up All Night tab