Song name
# A B C D E F G H I J K L M N O P Q R S T U V W X Y Z

Blink 182 - Stay Together For The Kids Piano Part tab

these are the two piano parts of the song

Interlude
e--------------------------------------------------------
b--------------------------------------------------------
g-2-0-----2-----------2--0-----2------9------------------
d------4--0--2-----0--------4--0-------------------------
a--------------------------------------------------------
e--------------------------------------------------------


outro(after Tom says \\\"its not right\\\" the last time)
e---------------------------------------------------------
b--5-7-8-3--7-8-10--10-12-10-10--10-8-7--7-8-7--7-8-3-5-7-
g---------------------------------------------------------
d---------------------------------------------------------
a---------------------------------------------------------
e---------------------------------------------------------

e-----------------------17---17-19-17--then it fades out
b--20-19-17---20-19-15------------------------------------
g---------------------------------------------------------
d---------------------------------------------------------
a---------------------------------------------------------
e---------------------------------------------------------
Tap to rate this tab
 
# A B C D E F G H I J K L M N O P Q R S T U V W X Y Z