Song name
# A B C D E F G H I J K L M N O P Q R S T U V W X Y Z

Blink 182 - Snake Charmer tab

----------------------------------------------------------------------------
			     Snake Charmer- Blink 182
----------------------------------------------------------------------------
Tabbed by:asianPANDAS
Email:jamesn2026@yahoo.com

Tuning:Standard

Intro:
e|-------------------|
B|-------------------|
G|6--7--9----6--7----|
D|x--x--x----x--x--7-|
A|4--5--7----4--5--x-|
E|-----------------5-|


e|--------------------|
B|--------------------|
G|66------------------|
D|66777777777777777/6-|x8
A|44777777777777777/6-|
E|--555555555555555/4-|


Verse (Optional):
e|0-00h1-1h3p1p0--------|
B|---------------2-2h3--|
G|--------------------2-|
D|----------------------|
A|----------------------|
E|----------------------|

e|5-0-00h1-1h3p1p0--------|
B|-----------------2-2h3--|
G|----------------------2-|
D|------------------------|
A|------------------------|
E|------------------------|

Chorus:
e|--------------------|
B|--------------------|
G|--------------------|
D|1177777777777777777-| x8
A|1177777777777777777-|
E|-955555555555555555-|

Intro
Verse
Chorus

Bridge:
e|--------------------------------------------------------|
B|--------------------------------------------------------|
G|--------------------------------------------------------|
D|7777777777777777777777777744444444444444444444444222222-|
A|7777777777777777777777777744444444444444444444444222222-|
E|5555555555555555555555555522222222222222222222222000000-|
                                  Good girls like to sin...
e|--------------------------------------------------------|
B|--------------------------------------------------------|
G|77777777777777777777777777------------------------------|
D|7777777777777777777777777777777777777777777777777777777-|
A|5555555555555555555555555577777777777777777777777777777-|
E|--------------------------55555555555555555555555555555-|
                                   And falling yet again...
e|--------------------------------------------------------|
B|--------------------------------------------------------|
G|--------------------------------------------------------|
D|7777777777777777777777777744444444444444444444444222222-|
A|7777777777777777777777777744444444444444444444444222222-|
E|5555555555555555555555555522222222222222222222222000000-|
                                  Good girls like to sin...
e|--------------------------------------------------------|
B|--------------------------------------------------------|
G|77777777777777777777777777------------------------------|
D|7777777777777777777777777777777777777777777777777777777-|
A|5555555555555555555555555577777777777777777777777777777-|
E|--------------------------55555555555555555555555555555-|
                                  Good girls like to sin...

Chorus
Intro

Verse x2

************************************

| /   slide up
| \   slide down
| h   hammer-on
| p   pull-off
| ~   vibrato
| +   harmonic
| x   Mute note
| b   Bend
| pb  Pre-bend
| br  Bend release
| pbr Pre-bend release
| brb Bend release bend

************************************
Tap to rate this tab
 
# A B C D E F G H I J K L M N O P Q R S T U V W X Y Z