Song name
# A B C D E F G H I J K L M N O P Q R S T U V W X Y Z

Blink 182 - Pretty Little Girl tab

Intro/verse
E |------------------------------------------------------------------|
B |------------------------------------------------------------------|
G |------------------------------------------------------------------|
D |-7----7---7---9---9-11----7-----7---7---7-----9--9-6--7-----------|
A |---00--00-00--0-------0----00----00-00--00---0-----0---0----------|
E |------------------------------------------------------------------|

E |------------------------------------------------------------------|
B |------------------------------------------------------------------|
G |------------------------------------------------------------------|
D |-7----7---7---9-----6----7--7----7---7---9---12--11---------------|
A |---00--00-00---00---0---0---00--00-00--00---0----0----------------|
E |------------------------------------------------------------------|


How to play without delay/echo pedal

Pre-chorus
E |----------------------------------------------|
B |----------------------------------------------|
G |----------------------------------------------|
D |---7---7--------9--11---9-------7---9---------|
A |---4---5---7---7---9----7-------5---7---------|
E |------------5---------------------------------|

Chorus
E |-------------------------------------------------------------------|
B |-------------------------------------------------------------------|
G |-------------------------------------------------------------------|
D |-----------777--999----------777--999--11-11-11--999--777--999-----|
A |--777----555--777--777----555--777---9--9---9--777--555--777---7---|
E |--555-----------------555----------------------------------------5-|

Bridge
E |------------------------------------------|
B |------------------------------------------|
G |--14--14--14------------------------------|
D |---x---x----x-----------------------------|
A |--12--12--12------------------------------|
E |------------------------------------------|
Tap to rate this tab
 
# A B C D E F G H I J K L M N O P Q R S T U V W X Y Z