Song name
# A B C D E F G H I J K L M N O P Q R S T U V W X Y Z

Blink 182 - Dont Tell Me That Its Over tab

 ---------------------------------------
 Don't Tell Me that It's Over- Blink 182
 ---------------------------------------
Album- Blink 182

Tuning-EADGBe

Intro

e|---------------------------|
B|---------------------------|
G|---------------------------|
D|----5~---------5-5---------|
A|----3~---------3-3---------|
E|---------------------------|  2x

Pre-Chorus

e|-------|
B|-------|
G|--5----|
D|--5----|Play until beginning of chorus
A|--3----|
E|-------|

Chorus

e|-------------------------------|
B|-------------------------------|
G|--55555555---------------------|
D|--55555555--5555-3333----------|Play 4x
A|--33333333--5555-3333----------|
E|------------3333-1111----------|

Riff

e|--------------------|
B|--------------------|
G|--------------------|
D|-----2-0-2---2------|Play 4x (3) only played on first time)
A|-(3)-------3---3----|
E|--------------------|

Verse

e|-----------------------------------------------|
B|-----------------------------------------------|
G|-5555555555555555------------------------------|
D|-5555555555555555-55555555-33333333------------|
A|-3333333333333333-55555555-33333333------------|
E|------------------33333333-11111111------------|
pm  ...............  .......  .......

Pre-Chorus

e|-------|
B|-------|
G|--5----|
D|--5----|Play until beginning of chorus
A|--3----|
E|-------|

Chorus

e|-------------------------------|
B|-------------------------------|
G|--55555555---------------------|
D|--55555555--5555-3333----------|Play 4x
A|--33333333--5555-3333----------|
E|------------3333-1111----------|

Riff

e|--------------------|
B|--------------------|
G|--------------------|
D|-----2-0-2---2------|Play 4x (3) only played on first time)
A|-(3)-------3---3----|
E|--------------------|


e|-----------------------------------|
B|-----------------------------------|
G|-55555-55-555555-------------------|
D|-55555-55-555555--55555-77-333333--|
A|-33333-33-333333--55555-77-333333--|
E|------------------33333-55-111111--|
pm ..... .. ......  ..... .. ......

Chorus

e|-------------------------------|
B|-------------------------------|
G|--55555555---------------------|
D|--55555555--5555-3333----------|Play 8x
A|--33333333--5555-3333----------|
E|------------3333-1111----------|

Outro
e|----
B|----
G|-5~-
D|-5~-
A|-3~-
E|----


And there you go. First tab..so be kind.
Tap to rate this tab
# A B C D E F G H I J K L M N O P Q R S T U V W X Y Z