Song name
# A B C D E F G H I J K L M N O P Q R S T U V W X Y Z

Bloodhound Gang - Kiss Me Where It Smells Funny tab

Help us improve GuitareTab! Take a short survey!
#----------------------------------PLEASE NOTE---------------------------------#
#This file is the author's own work and represents their interpretation of the #
#song. You may only use this file for private study, scholarship, or research. #
#------------------------------------------------------------------------------##

                          KISS ME WHERE IT SMELLS FUNNY
                         As recorded by Bloodhound Gang
                  (From the 1996 Album ONE FIERCE BEERCOASTER)


Gtr I (E A D G B E) - 'Untitled'

 Intro
  Q=160
                                        G5
 4/4
  Gtr I
  W          W          W          H    Q  Q
|----------|----------|----------|------------|
|----------|----------|----------|------------|
|----------|----------|----------|------------|
|----------|----------|----------|------5--5--|
|----------|----------|----------|------5--5--|
|----------|----------|----------|------3--3--|


   Verse And Chorus
   4/4
    Gtr I
    E E E E E E E E   E E E E E E E E   E E E E E E E E   E E E E E E E E
||------------------|-----------------|-----------------|------------------|
||o-----------------|-----------------|-----------------|------------------|
||------------------|-----------------|-----------------|------------------|
||------------------|-----------------|-----------------|------------------|
||o-----------------|---------5-------|-----------------|---------5--------|
||--0-5-6-7-0-5-6-7-|-0-5-6-7---7-6-5-|-0-5-6-7-0-5-6-7-|-0-5-6-7---7-6-5--|


  E E E E E E E E   E E E E E E E E   E E E E E E E E   E E E E E E E E
|-----------------|-----------------|-----------------|------------------|
|-----------------|-----------------|-----------------|------------------|
|-----------------|-----------------|-----------------|------------------|
|-----------------|-----------------|-----------------|------------------|
|-----------------|---------5-------|-----------------|---------5--------|
|-0-5-6-7-0-5-6-7-|-0-5-6-7---7-6-5-|-0-5-6-7-0-5-6-7-|-0-5-6-7---7-6-5--|


  E5                        G5      E5                          G5
  E E E E E E E E   E E E E Q  Q    E E E E E E E S S   E E E E Q  Q
|-----------------|---------------|-------------------|---------------|
|-----------------|---------------|-------------------|---------------|
|-----------------|---------------|-------------------|---------------|
|-2-2-2-2-2-2-2-2-|-2-2-2-2-5--5--|-2-2-2-2-2-2-2-2-2-|-2-2-2-2-5--5--|
|-2-2-2-2-2-2-2-2-|-2-2-2-2-5--5--|-2-2-2-2-2-2-2-2-2-|-2-2-2-2-5--5--|
|-0-0-0-0-0-0-0-0-|-0-0-0-0-3--3--|-0-0-0-0-0-0-0-0-0-|-0-0-0-0-3--3--|


  E5                        G5      E5                          G5
  E E E E E E E E   E E E E Q  Q    E E E E E E E S S   E E E E Q  Q
|-----------------|---------------|-------------------|---------------|
|-----------------|---------------|-------------------|---------------|
|-----------------|---------------|-------------------|---------------|
|-2-2-2-2-2-2-2-2-|-2-2-2-2-5--5--|-2-2-2-2-2-2-2-2-2-|-2-2-2-2-5--5--|
|-2-2-2-2-2-2-2-2-|-2-2-2-2-5--5--|-2-2-2-2-2-2-2-2-2-|-2-2-2-2-5--5--|
|-0-0-0-0-0-0-0-0-|-0-0-0-0-3--3--|-0-0-0-0-0-0-0-0-0-|-0-0-0-0-3--3--|


  E5                        G5 B5   A5                        G5 B5
  E E E E E E E E   E E E E Q  Q    E E E E E E E E   E E E E Q  Q
|-----------------|---------------|-----------------|----------------|
|-----------------|---------------|-----------------|----------------|
|-----------------|---------------|-----------------|----------------|
|-2-2-2-2-2-2-2-2-|-2-2-2-2-5--9--|-7-7-7-7-7-7-7-7-|-7-7-7-7-5--9---|
|-2-2-2-2-2-2-2-2-|-2-2-2-2-5--9--|-7-7-7-7-7-7-7-7-|-7-7-7-7-5--9---|
|-0-0-0-0-0-0-0-0-|-0-0-0-0-3--7--|-5-5-5-5-5-5-5-5-|-5-5-5-5-3--7---|


  A5                    B5 A5G5F#5  E5                        G5
  E E E E E E E E   E E Q  E E Q    E E E E E E E E   E E E E Q  Q
|-----------------|---------------|-----------------|----------------|
|-----------------|---------------|-----------------|----------------|
|-----------------|---------------|-----------------|----------------|
|-7-7-7-7-7-7-7-7-|-7-7-9--7-5-4--|-2-2-2-2-2-2-2-2-|-2-2-2-2-5--5---|
|-7-7-7-7-7-7-7-7-|-7-7-9--7-5-4--|-2-2-2-2-2-2-2-2-|-2-2-2-2-5--5---|
|-5-5-5-5-5-5-5-5-|-5-5-7--5-3-2--|-0-0-0-0-0-0-0-0-|-0-0-0-0-3--3---|


  E5                        G5 B5   A5                        G5 B5
  E E E E E E E E   E E E E Q  Q    E E E E E E E E   E E E E Q  Q
|-----------------|---------------|-----------------|----------------|
|-----------------|---------------|-----------------|----------------|
|-----------------|---------------|-----------------|----------------|
|-2-2-2-2-2-2-2-2-|-2-2-2-2-5--9--|-7-7-7-7-7-7-7-7-|-7-7-7-7-5--9---|
|-2-2-2-2-2-2-2-2-|-2-2-2-2-5--9--|-7-7-7-7-7-7-7-7-|-7-7-7-7-5--9---|
|-0-0-0-0-0-0-0-0-|-0-0-0-0-3--7--|-5-5-5-5-5-5-5-5-|-5-5-5-5-3--7---|


  A5                    B5 A5G5F#5  E5
  E E E E E E E E   E E Q  E E Q    E E E E E E E E   E E Q  H
|-----------------|---------------|-----------------|--------------||
|-----------------|---------------|-----------------|-------------o||
|-----------------|---------------|-----------------|--------------||
|-7-7-7-7-7-7-7-7-|-7-7-9--7-5-4--|-2-2-2-2-2-2-2-2-|-2------------||
|-7-7-7-7-7-7-7-7-|-7-7-9--7-5-4--|-2-2-2-2-2-2-2-2-|-2-----------o||
|-5-5-5-5-5-5-5-5-|-5-5-7--5-3-2--|-0-0-0-0-0-0-0-0-|-0------------||


 Chorus
  E E E E E E E E   E E E E E E E E   E E E E E E E E   E E E E E E E E
|-----------------|-----------------|-----------------|------------------|
|-----------------|-----------------|-----------------|------------------|
|-----------------|-----------------|-----------------|------------------|
|-----------------|-----------------|-----------------|------------------|
|-----------------|---------5-------|-----------------|---------5--------|
|-0-5-6-7-0-5-6-7-|-0-5-6-7---7-6-5-|-0-5-6-7-0-5-6-7-|-0-5-6-7---7-6-5--|


  E E E E E E E E   E E E E E E E E   E E E E E E E E   E E E E E E E E
|-----------------|-----------------|-----------------|------------------|
|-----------------|-----------------|-----------------|------------------|
|-----------------|-----------------|-----------------|------------------|
|-----------------|-----------------|-----------------|------------------|
|-----------------|---------5-------|-----------------|---------5--------|
|-0-5-6-7-0-5-6-7-|-0-5-6-7---7-6-5-|-0-5-6-7-0-5-6-7-|-0-5-6-7---7-6-5--|


   Break
    E5              G5              A5              B5   D5  B5A5G5
    E E Q  Q.   E   E E Q  Q.   E   E E Q  Q.   E   E Q   Q  E E E  6x
||----------------|---------------|---------------|-----------------||
||o---------------|---------------|---------------|----------------o||
||----------------|---------------|---------------|-----------------||
||--2-2---------2-|-5-5---------5-|-7-7---------7-|-9-9--12--9-7-5--||
||o-2-2---------2-|-5-5---------5-|-7-7---------7-|-9-9--12--9-7-5-o||
||--0-0---------0-|-3-3---------3-|-5-5---------5-|-7-7--10--7-5-3--||


   Outro
    E E E E E E E E   E E E E E E E E   E E E E E E E E   E E E E E E E E  4x
||------------------|-----------------|-----------------|------------------||
||o-----------------|-----------------|-----------------|-----------------o||
||------------------|-----------------|-----------------|------------------||
||------------------|-----------------|-----------------|------------------||
||o-----------------|---------5-------|-----------------|---------5-------o||
||--0-5-6-7-0-5-6-7-|-0-5-6-7---7-6-5-|-0-5-6-7-0-5-6-7-|-0-5-6-7---7-6-5--||


Duration Legend
---------------
W - whole; H - half; Q - quarter; E - 8th; S - 16th; T - 32nd; X - 64th; a - acciaccatura
+ - note tied to previous; . - note dotted; .. - note double dotted
Uncapitalized letters represent notes that are staccato (1/2 duration)
Irregular groupings are notated above the duration line
Duration letters will always appear directly above the note/fret number it represents the
duration for.  Duration letters with no fret number below them represent rests.  Multi-
bar rests are notated in the form Wxn, where n is the number of bars to rest for.  Low
melody durations appear below the staff

Tablature Legend
----------------
 h   - hammer-on
 p   - pull-off
 b   - bend
 pb  - pre-bend
 r   - bend release (if no number after the r, then release immediately)
 /\  - slide into or out of (from/to "nowhere")
 s   - legato slide
 S   - shift slide
  - natural harmonic
[n]  - artificial harmonic
n(n) - tapped harmonic
 ~   - vibrato
 tr  - trill
 T   - tap
 TP  - trem. picking
 PM  - palm muting
\n/  - tremolo bar dip; n = amount to dip
 \n  - tremolo bar down
 n/  - tremolo bar up
/n\  - tremolo bar inverted dip
 =   - hold bend; also acts as connecting device for hammers/pulls
 <>  - volume swell (louder/softer)
 x   - on rhythm slash represents muted slash
 o   - on rhythm slash represents single note slash

Misc Legend
-----------
 |  - bar
||  - double bar
||o - repeat start
o|| - repeat end
*|  - double bar (ending)
 :  - bar (freetime)
 $  - Segno
 &  - Coda
Tempo markers -  = BPM(8/16=s8/s16), where s8 = swing 8ths, s16 = swing 16ths

Related for Kiss Me Where It Smells Funny tab