Song name
# A B C D E F G H I J K L M N O P Q R S T U V W X Y Z

Blue Oyster Cult - Heavy Metal tab

i cant believe no one has tabbed this song or at least the intro . o well here it is.

Intro
e----------------------------------------
b----------------------------------------
g----------------------------------------
d----5--7--7-------7-5------5------------ 
a----5--7--7--5h7------7-5--5------------
e----3--5--5----------------3------------

Verse
e----------------------------------------
b----------------------------------------
g----------------------------------------
d----5/7--7--7--7/5--5--5---------------- 
a----5/7--7--7--7/5--5--5----------------
e----3/5--5--5--5/3--3--3----------------


Chorus
e----------------------------------------
b----------------------------------------
g----------------------------------------
d----5--7--7-------7-5------5------------ 
a----5--7--7--5h7------7-5--5------------
e----3--5--5----------------3------------

back to verse

then to chorus

Interlude
e----------------------------------------------------
b----------------------------------------------------
g----77--77-----------------------------------99-99--
d----77--77--77--77-then finish it off with---99-99--
a----55--55--77--77---------------------------77-77--
e------------55--55----------------------------------


then back to chorus

-eČ
Tap to rate this tab
# A B C D E F G H I J K L M N O P Q R S T U V W X Y Z