Song name
# A B C D E F G H I J K L M N O P Q R S T U V W X Y Z

Blue Stahli - Corner tab

-------------------------------------------------------------------------------
                             Corner - Blue Stahli
-------------------------------------------------------------------------------
Tabbed by: iPsych0

Tuning: Drop C Tuning.

D|---------------------------------------------------------------------------|
A|---------------------------------------------------------------------------|
F|---------------------------------------------------------------------------|
C|---------------------------------------------------------------------------|
G|-----------------------7---------------------------------3-5---------------|
C|-7-7-5-8-5-7-5-7-5-7-8---7-5-5-----7-7-5-8-5-7-5-7-5-7-8-------------------|

D|---------------------------------------------------------------------------|
A|---------------------------------------------------------------------------|
F|---------------------------------------------------------------------------|
C|-----------------------------------12/11--11/10--10/9--9/8--8/7--7/5\7~~~--|
G|-----------------------7-----------12/11--11/10--10/9--9/8--8/7--7/5\7~~~--|
C|-7-7-5-8-5-7-5-7-5-7-8---7-5-5-----12/11--11/10--10/9--9/8--8/7--7/5\7~~~--|



************************************

| /   slide up
| \   slide down
| h   hammer-on
| p   pull-off
| ~   vibrato
| +   harmonic
| x   Mute note
| b   Bend
| pb  Pre-bend
| br  Bend release
| pbr Pre-bend release
| brb Bend release bend

************************************
Tap to rate this tab
 
# A B C D E F G H I J K L M N O P Q R S T U V W X Y Z