Song name
# A B C D E F G H I J K L M N O P Q R S T U V W X Y Z

Blues Brothers - Soul Man tab

Song Title: 	Soul Man - The Blues Brothers
 		(tabbed from "The Blues Brother Complete" CD)

Author: 	Mike Luard (3rd tab)
Contact: 	mikeluard@hotmail.com

Key: 		E then F


Intro (use vibrato)
e-------------------------------------9 -----11---|
B-------9-9-97-7---7------12----------------------|
G-------------------------------------------------|
D--7/9------------7----7/9------9/11------11------|
A-------------------------------------------------|
E-------------------------------------------------|


Verse/Chorus
e-------------------------------7----5----7---10-10-12-12-12---|
B--9-9---9-9-9-9-7-5-----------9----7----9---------------------|
G--9-9---9-9-9-9-9-----x12------9----7----9--------------------|
D-------------------------------9----7----9--------------------|
A-------------------------------7----5----7--------------------|
E--------------------------------------------------------------|

7----6----7-----------|
9----7----9-----------|
9----7----9-----------|
9----7----9-----------|
7----5----7----4-7----|
-------------5-----7--|


Into key change (F) 1:56
e-3----3----5-----------------------------------------------------------10---|
B-5----3----5-----------------------10-10-108----8-------13----13------------|
G-5----4----6----------------------------------------------------------------|
D-5----5----7------------------8/10------------8----8/10----10----10/12---12-|
A-3----5----7----------------------------------------------------------------|
E------3----5----------------------------------------------------------------|


e------12---13-13-13-13-1311---11-----11-------------------------------------|
B------------------------------------------------13----13----13--------------|
G----------------------------------------------------------------------------|
D-12/14--14-----------------13----13------10/12-----12----12-----------------|
A-------------------------------------------------------------------5--8-----|
E-----------------------------------------------------------------6------8---|


Main riff in F
e------------------------------|
B--10-10--10-10-10-10-8---6----|
G--10-10--10-10-10-10-10-------|
D------------------------------|
A------------------------------|
E------------------------------|
Tap to rate this tab
 
# A B C D E F G H I J K L M N O P Q R S T U V W X Y Z