Guitaretab - guitar tabs
Song name
# A B C D E F G H I J K L M N O P Q R S T U V W X Y Z

Blues Traveler - The Mountains Win Again tab

E|------------------------------------------------|
B|---------------------------------13/12--13/12---|
G|--14b(16)-12~-~-~-~-~-~-~-~-~-~-----------------|
D|------------------------------------------------|
A|------------------------------------------------|
E|------------------------------------------------|

E|------------------------------------------------|
B|------------------------------------------------|
G|------------------------------------------------|
D|-12------14\12--12/14--14/17--17/19--19\17--17--|
A|------------------------------------------------|
E|------------------------------------------------|
[ Tab from: http://www.guitaretab.com/b/blues-traveler/1898.html ]
E|-----------------------------------------------------|
B|-----------------------------------------------------|
G|-17/16-17\19--19--19b(21)-19-19-17-17--17p16-17p16---|
D|---------------------------------------------------17|
A|-----------------------------------------------------|
E|-----------------------------------------------------|

E|---------------------------------------15------------20--15------------|
B|--20/19-19/17-17/15-15\17-17/12----------------------------------------|
G|------------------------------------14b(16)--rb(14)------------16--12--|
D|-----------------------------------------------------------------------|
A|-----------------------------------------------------------------------|
E|-----------------------------------------------------------------------|

Related for The Mountains Win Again tab
The Mountains Win Again chords by Blues Traveler