Song name
# A B C D E F G H I J K L M N O P Q R S T U V W X Y Z

Blur - Parklife tab

"Parklife" by Blur
From the album "Parklife" (1994)
If you don't own it, leave right now and buy it.

Standard Tuning

Intro/Verse

-0-----0--0----0--0---0--0--0---------------------|
-0-----0--0----0--0---14-14-0---------------------|
-13----13-13---13-13--14-14-14--------------------|
-14----14-14---14-14--0--0--14--------------------|
-14----14-14---14-14--0--0--0---------------------|
-0-----0--0----0--0-------------------------------|

Chorus

Riff A - Play Twice

--------------------------------------------------|
--------------------------------------------------|
-------------7-8--7-8-----------------------------|
-------2p0---8-9--8-9-----------------------------|
---0h2-------8-9--8-9-----------------------------|
-0-----------6-7--6-7-----------------------------|

Riff B


-3-3-2-2-0-0-2-2----------------------------------|
-3-3-3-3-0-0-3-3-1-1-1-1-3-2---------------8-7----|
-0-0-2-2-0-0-2-2-0-0-0-0-2-2---7-8----------------|
-0-0-0-0-2-2-0-0-2-2-2-2-2-2---8-9------7---------|
-2-2-x-x-2-2-----3-3-2-2-0-0---8-9----6-----------|
-3-3-2-2-0-0-------------------6-7--7-------------|
Tap to rate this tab
# A B C D E F G H I J K L M N O P Q R S T U V W X Y Z