Song name
# A B C D E F G H I J K L M N O P Q R S T U V W X Y Z

Bob Seger - Main Street tab

e]-18---18-16-15-16---16-18-16-15b------|
B]---------------------------------16---|
G]--------------------------------------|
D]--------------------------------------|
A]--------------------------------------|
E]--------------------------------------|

e]----13-15-16-18---18-16-15-16---16-18-|
B]-16-----------------------------------|
G]--------------------------------------|
D]--------------------------------------|
A]--------------------------------------|
E]--------------------------------------|

e]-16-15b-------------------------------|
B]--------16---13-16-13-10-12-10--------|
G]--------------------------------------|
D]--------------------------------------|
A]--------------------------------------|
E]--------------------------------------|

Sounds better if you turn up the gain.
Tap to rate this tab
# A B C D E F G H I J K L M N O P Q R S T U V W X Y Z