Song name
# A B C D E F G H I J K L M N O P Q R S T U V W X Y Z

Bodyjar - Wake Up tab

Title: Wake Up

Artist: Bodyjar

Album: Short Music for Short People (Compalation)

Tuning: Standard (EADGBE)

Key:
/ = slide up
\ = slide down
* = let ring
. = palm mute
b = bend
h = hammer on
p = pull off
< > = pick fast
( ) = harmonic

Verse 1(Wake up now...):

Guitar 1 and 2:

E|------------------------------------------------|
B|------------------------------------------------|
G|------------------------------------------------|
D|------------------------------------------------|
A|-7*--------2-2-2-2-2-2-2-2-3-3-3-3-3-3-5--6*----|
E|-5*--------0-0-0-0-0-0-0-0-1-1-1-1-1-1-3--4*----|

Chorus(Imagine all...):
E|-------------------------------------------|
B|-------------------------------------------|
G|-6-6-------15-15---------------------------|
D|---------------------------------5-5-6-6-8-|
A|-4-4-------13-13---8-8-8-8-8-6-6-3-3-4-4-6-|
E|-------------------6-6-6-6-6-4-4-----------|
                     . . . . . . . . . . . .

E|------------------------------------|
B|------------------------------------|
G|-6-6-------15-15--------------------|
D|------------------------------------|
A|-4-4-------13-13---8-8-8-8-8-6-8-6*-|
E|-------------------6-6-6-6-6-4-6-4*-|

Riff(Before Noon.):

Guitar 1:
E|---------------------------------------------|
B|-4-3--4-3--4-3--4-3--6-4--6-4--6-4--6-4--6-4-|
G|---------------------------------------------|
D|---------------------------------------------|
A|---------------------------------------------|
E|---------------------------------------------|

Guitar 2:
E|----------------------------------------|
B|----------------------------------------|
G|----------------------------------------|
D|----------------------------------------|
A|-8-8--8-8--8-8--8-8--6-6--6-6--6-6--6-6-|
E|-6-6--6-6--6-6--6-6--4-4--4-4--4-4--4-4-|

Verse 2(Checks tomorrows...):

Guitar 1 and 2:

E|------------------------------------------------|
B|------------------------------------------------|
G|------------------------------------------------|
D|------------------------------------------------|
A|-7-7-7-7-7-7-2-2-2-2-2-2-2-2-3-3-3-3-3-3-5--6*--|
E|-5-5-5-5-5-5-0-0-0-0-0-0-0-0-1-1-1-1-1-1-3--4*--|

Chorus(Imagine all...):
E|-----------------------------------|
B|-----------------------------------|
G|-6-6-------15-15-------------------|
D|-----------------------------------|
A|-4-4-------13-13---8-8-8-8-8-6-8-6-|
E|-------------------6-6-6-6-6-4-6-4-|

Tabber: Winno

Email: winnorulz@hotmail.com
Tap to rate this tab
 
# A B C D E F G H I J K L M N O P Q R S T U V W X Y Z