Song name
# A B C D E F G H I J K L M N O P Q R S T U V W X Y Z

Bombay Bicycle Club - Leave It tab

-------------------------------------------------------------------------------
                             Leave It Intro - Bombay Bicycle Club
-------------------------------------------------------------------------------

Tuning: Standard: EADGBe

e|--------------------------------------------------------------------------------|
B|---3~---1---3---0-----------1~---0---1---0---------------3~---1---3---0---------|
G|---0~---------------2-------0~---------------2---0-------0~---------------2-----|
D|---2~-----------------------2~---------------------------2~---------------------|
A|--------------------------------------------------------------------------------|
E|--------------------------------------------------------------------------------|


e|--------------------------------------------------------------------------------|
B|---1~---0---1---0--------------3~---1---3---0-----------1~---0---1---0----------|
G|---0~---------------2---0------0~---------------2-------0~--------------2---0---|
D|---2~--------------------------2~-----------------------2~----------------------|
A|--------------------------------------------------------------------------------|
E|--------------------------------------------------------------------------------|

************************************

~ hold on

************************************
Tap to rate this tab
 
# A B C D E F G H I J K L M N O P Q R S T U V W X Y Z