Song name
# A B C D E F G H I J K L M N O P Q R S T U V W X Y Z

Bombay Bicycle Club - How Are You tab

Tabbed by 'MonTheBiffy 2007.
Please leave feedback, cheers.
Enjoy.
http://www.myspace.com/bombaybicycleclub  



Intro:
E|----------------------[Repeat x3]---------|
B|--12--13--15------------------------------|
G|--12--12--12------------------------------|
D|--12--12--12------------------------------|
A|------------------------------------------|
E|------------------------------------------|


E|----[x8]-----[x8]----[x16]----------------|
B|--12-------13------15---------------------|
G|--12-------12------12---------------------|
D|--12-------12------12---------------------|
A|------------------------------------------|
E|------------------------------------------|


Rif:
E|-----------------------------[repeat x2]--|
B|--15-P12-----15-P12------15---------------|
G|--14-----14--14-----14---14---------------|
D|------------------------------------------|
A|------------------------------------------|
E|------------------------------------------|


E|------------------------------------------|
B|------------------------------------------|
G|--9--7-7-7-7-7-12-12-12-12-12-12-12-12----|
D|------------------------------------------|
A|------------------------------------------|
E|------------------------------------------|
Tap to rate this tab
# A B C D E F G H I J K L M N O P Q R S T U V W X Y Z