Song name
# A B C D E F G H I J K L M N O P Q R S T U V W X Y Z

Bone Thugs N Harmony - Tha Crossroads tab

----12---11----12---14----16-----------|
--------------------------17-----------|
---------------------------------------|
---------------------------------------|
---------------------------------------|
^
^
this is the soft piano part that plays over the piano and bass

4----------9-7---------2-4---|
-----------------------------|
-----------------------------|
-----------------------------|
-----------------------------|
-----------------------------|

^
and this part is the synthesizer strings you hold the notes G# and b

|---------------------------------------------------|
D|-----------------------2--------------------------|
A|-------------------2-4----------------------------|
E|--2--2-4--4-5--5--5-------------------------------|


AND LASTLY THIS IS THE BASS AND THE MAIN MELODY
Tap to rate this tab
# A B C D E F G H I J K L M N O P Q R S T U V W X Y Z