Song name
# A B C D E F G H I J K L M N O P Q R S T U V W X Y Z

Bouncing Souls - Better Life tab

-------------------------------------------------------------------------------
			     SONG NAME - Band Name
-------------------------------------------------------------------------------
Tabbed by:
Email:

Tuning:standard EADGBE

verse
e|------------------------------------------------------------------|
B|------------------------------------------------------------------|
G|------9-----------9-----------7-----------------------------------|
D|--9---9------9----9------7----7-----------------------------------|
A|--9---7-x6---9----7-x6---7----5-x6--------------------------------|
E|--7-x3-------7-x3--------5-x3-------------------------------------|


verse (lead)
e|----------------------------------------------------------------|
B|----------------------------------------------------------------|
G|------999999-----999999---------777777---------------777777-----|
D|--999----------999----------777-------777-------777-------------|
A|----------------------------------------------------------------|
E|----------------------------------------------------------------|
chorus
e|-----------------------------------------------------|
B|-----------------------------------------------------|
G|--------------9-------------------------9------------|
D|--7-----9-----9-----7-------7-----9-----9------------|
A|--7-----9-----7-x4--7-------7-----9-----7-x5---------|
E|--5-x4--7-x4--------5-x4----5-x4--7-x4---------------|


| /  slide up
|   slide down
| h  hammer-on
| p  pull-off
| ~  vibrato
| +  harmonic
| x  Mute note
===============================================================================
Tap to rate this tab
 
# A B C D E F G H I J K L M N O P Q R S T U V W X Y Z