Song name
# A B C D E F G H I J K L M N O P Q R S T U V W X Y Z

Box Car Racer - There Is tab

INTRO/BRIDGE:
e-----------------------------------------------------
B-----------------------------------------------------
G--88888888888-66666666666-44444444444-666666-333333--
D--88888888888-66666666666-44444444444-666666-333333-- X2
A--66666666666-44444444444-22222222222-444444-111111--
E-----------------------------------------------------

VERSE:
e---------------------------------------------------
B---------------------------------------------------
G--44444444444--------------------------------------
D--44444444444-44444444444-66666666666-22222222222-- X4
A--22222222222-44444444444-66666666666-22222222222--
E--------------22222222222-44444444444-00000000000--

CHORUS RIFF:

GUITAR #1
e---------------
B--------2------
G--4-4-4---4-4--
D--------------- X8
A---------------
E---------------

GUITAR #2
e---------------------------
B---------------------------
G--44444444444-66666666666--
D--44444444444-66666666666-- X4
A--22222222222-44444444444--
E---------------------------

INTERLUDE
e---------------------------------------------------
B---------------------------------------------------
G--88888888888-99999999999-88888888888-99999999999--
D--88888888888-99999999999-88888888888-99999999999--
A--66666666666-77777777777-66666666666-77777777777--
E---------------------------------------------------

e---------------------------------------------------
B---------------------------------------------------
G--88888888888-------------88888888888-66666666666--
D--88888888888-99999999999-88888888888-66666666666--
A--66666666666-99999999999-66666666666-44444444444--
E--------------77777777777--------------------------

LAST CHORUS

GUITAR #1
e---------------------------
B---------------------------
G--44444444444-66666666666--
D--44444444444-66666666666-- X4
A--22222222222-44444444444--
E---------------------------

GUITAR #2
e---------------
B--------2------
G--4-4-4---4-4--
D--------------- X8
A---------------
E---------------

GUITAR #1
e---------------------------
B---------------------------
G--88888888888-66666666666--
D--88888888888-66666666666-- X4
A--66666666666-44444444444--
E---------------------------

END ON
e-----
B-----
G--4--
D--4--
A--2--
E-----

Tap to rate this tab
# A B C D E F G H I J K L M N O P Q R S T U V W X Y Z