Song name
# A B C D E F G H I J K L M N O P Q R S T U V W X Y Z

Box Car Racer - Letters To God tab

Okay this is the tab for "letters to god", a track from the amazing Box Car Racer album.

Main Riff 1:

e------------------------------------------------|
b------------------------------------------------|
g------------------------------------------------|
d-55555555-0-4-55555555--------------------------|
a-22222222-0-4-55555555--------------------------|
e-00000000-0-2-33333333--------------------------|

verse:
e------------------------------------------------|
b------------------------------------------------|
g------------------------------------------------|
d-5555555555555555-------------------------------|
a-2222222255555555-------------------------------|
e-0000000033333333-------------------------------|

Chorus:

e------------------------------------------------|
b------------------------------------------------|
g----------55555555---------77777777-------------|
d-55555555-55555555-5555555-77777777----(X2)-----|
a-22222222-33333333-5555555-55555555-------------|
e-00000000----------3333333----------------------|

Bridge:

e------------------------------------------------|
b------------------------------------------------|
g------------------------------------------------|
d-55555555-77777777-99999999-77777777------------|
a-55555555-77777777-99999999-77777777------------|
e-33333333-55555555-77777777-55555555------------|


e------------------------------------------------|
b------------------------------------------------|
g------------------------------------------------|
d-55555555-77777777-99999999-1010101010101010----|
a-55555555-77777777-99999999-1010101010101010----|
e-33333333-55555555-77777777-8-8-8-8-8-8-8-8-----|

(Theres piano in the bridge also)

Main Riff 2 (overdrive):

e------------------------------------------------|
b------------------------------------------------|
g------------------------------------------------|
d-5555-5555-0-4-5555-5555------------------------|
a-2222-2222-0-4-5555-5555------------------------|
e-0000-0000-0-2-3333-3333------------------------|

End :
e----------------|
b----------------|
g----------------|
d-5--------------|
a-2--------------|
e-0--------------|


Order:

Main Riff 1 (acoustic) x 2
verse (acoustic)x 4
chorus (acoustic)
Main Riff 1 (acoustic) x 2
verse (acoustic)x 4
chorus (acoustic)
Bridge (acoustic) x 2
Main Riff 2 (overdrive) x 2
Main Riff 1 (overdrive) x 2
chorus (overdrive) x 2
End

please message me for any edits
hope you enjoy the song!
Curls182
Tap to rate this tab
# A B C D E F G H I J K L M N O P Q R S T U V W X Y Z