Song name
# A B C D E F G H I J K L M N O P Q R S T U V W X Y Z

Boyce Avenue - What Makes You Beautiful tab

A'ight guys my first tab. This is kinda tough, my fingers are pretty stretched out 
after this and my left index finger hurts a lot after this. I suggest you warm up 
your fingers for this.

Basically an easy song to tab, but Alejandro has improvised it beautifully. I 
didn't have a capo so I covered this song without one.
So this one is without a capo.
I suggest you try it with one, cause this one is tough.

The catch of the song is the timing of playing the notes while singing the chorus. 
Its tough to get a hang of it.

Tuning : Standard.
Difficulty : Intermediate.

Intro 

e|-------------------------------------------|
B|---------1---------1---------1----------3--|
G|-------0---------0---------0---------0-----|  (x2)
D|--------------3---------2------------------|
A|-----3----------------------------3--------|
E|-------------------------------------------|



        You're Insecure....    Don't know..     You're turning..
|---------------------------------------------------------------|
|---------1------------------------1---------------1------------|
|-------0------------------------0---------------0--------------|  
|-----------------------------3----------------2----------------|
|-----3---------------------------------------------------------|
|---------------------------------------------------------------|

Door...
|-------|
|----3--|
|--0----|      [Repeat 3x till chorus]
|-------|
|3------|
|-------|


Chorus [Check the timing here.]
                Baby you..
|-------------| |--------------------------------------|
|----3p1---1--| |------3h5------1------1h3----3----1---|
|--------0----| |----0--------0------0-----------------|
|-------------| |------------------3--------3----3-----|  [x5]
|----3--------| |--3--------3--------------------------|
|-------------| |--------------------------------------|

|-------1h3----------------------------|
|---------------1------1h3----3----1---|
|-----0-------0------0-----------------|  [x2]
|------------------3--------3----3-----|
|---3-------3--------------------------|
|--------------------------------------|

Verse 2

|-------------------------------------------|
|---------1---------1---------1----------3--|
|-------0---------0---------0---------0-----|  (x3)
|--------------3---------2------------------|
|-----3----------------------------3--------|
|-------------------------------------------|

Chorus [Instead of playing the last of part of the first chorus play this]

|---3h5------3--3p1--------------------------------------------|
|-------1----------1------3--5--5---------1--3--3-----3p1--1---|
|---------0----------0------------0---------------0------------|
|--------------------------------------------------------------|  [x2]
|---3---------------------3--3------3-----3--3------3----------|
|--------------------------------------------------------------|


|----------------------|
|--1----1----1----3----|
|--0----0----0----0----|
|-------3----2---------|
|--3--------------3----|
|----------------------|


[Bridge]

|--------------------------------------|
|------3h5------1------1h3----3----1---|
|----0--------0------0-----------------|
|------------------3--------3----3-----|
|--3--------3--------------------------|
|--------------------------------------|

Chorus [ 1st chorus ]


Chorus is played till the end.


Thank You. Do rate.
Tap to rate this tab
# A B C D E F G H I J K L M N O P Q R S T U V W X Y Z